  0
SECTION
  2
HEADER
  9
$ACADVER
  1
AC1014
  9
$ACADMAINTVER
 70
     0
  9
$DWGCODEPAGE
  3
ANSI_1250
  9
$INSBASE
 10
0.0
 20
0.0
 30
0.0
  9
$EXTMIN
 10
-228.089933
 20
-228.089933
 30
0.0
  9
$EXTMAX
 10
228.089933
 20
228.089933
 30
281.277068
  9
$LIMMIN
 10
0.0
 20
0.0
  9
$LIMMAX
 10
420.0
 20
297.0
  9
$ORTHOMODE
 70
     0
  9
$REGENMODE
 70
     1
  9
$FILLMODE
 70
     0
  9
$QTEXTMODE
 70
     0
  9
$MIRRTEXT
 70
     1
  9
$DRAGMODE
 70
     2
  9
$LTSCALE
 40
1.0
  9
$OSMODE
 70
     8
  9
$ATTMODE
 70
     2
  9
$TEXTSIZE
 40
100.0
  9
$TRACEWID
 40
1.0
  9
$TEXTSTYLE
  7
ROMANS
  9
$CLAYER
  8
0
  9
$CELTYPE
  6
CONTINUOUS
  9
$CECOLOR
 62
   256
  9
$CELTSCALE
 40
1.0
  9
$DELOBJ
 70
     1
  9
$DISPSILH
 70
     0
  9
$DIMSCALE
 40
50.0
  9
$DIMASZ
 40
2.0
  9
$DIMEXO
 40
0.625
  9
$DIMDLI
 40
3.75
  9
$DIMRND
 40
1.0
  9
$DIMDLE
 40
0.0
  9
$DIMEXE
 40
1.0
  9
$DIMTP
 40
0.0
  9
$DIMTM
 40
0.0
  9
$DIMTXT
 40
10.0
  9
$DIMCEN
 40
-100.0
  9
$DIMTSZ
 40
0.0
  9
$DIMTOL
 70
     0
  9
$DIMLIM
 70
     0
  9
$DIMTIH
 70
     0
  9
$DIMTOH
 70
     0
  9
$DIMSE1
 70
     0
  9
$DIMSE2
 70
     0
  9
$DIMTAD
 70
     1
  9
$DIMZIN
 70
     8
  9
$DIMBLK
  1

  9
$DIMASO
 70
     1
  9
$DIMSHO
 70
     1
  9
$DIMPOST
  1

  9
$DIMAPOST
  1

  9
$DIMALT
 70
     0
  9
$DIMALTD
 70
     4
  9
$DIMALTF
 40
0.0394
  9
$DIMLFAC
 40
1.0
  9
$DIMTOFL
 70
     1
  9
$DIMTVP
 40
2.0
  9
$DIMTIX
 70
     0
  9
$DIMSOXD
 70
     0
  9
$DIMSAH
 70
     1
  9
$DIMBLK1
  1
_OBLIQUE
  9
$DIMBLK2
  1
_OBLIQUE
  9
$DIMSTYLE
  2
STANEK
  9
$DIMCLRD
 70
     4
  9
$DIMCLRE
 70
     4
  9
$DIMCLRT
 70
     4
  9
$DIMTFAC
 40
2.2
  9
$DIMGAP
 40
0.625
  9
$DIMJUST
 70
     0
  9
$DIMSD1
 70
     0
  9
$DIMSD2
 70
     0
  9
$DIMTOLJ
 70
     1
  9
$DIMTZIN
 70
     8
  9
$DIMALTZ
 70
     8
  9
$DIMALTTZ
 70
     8
  9
$DIMFIT
 70
     5
  9
$DIMUPT
 70
     0
  9
$DIMUNIT
 70
     2
  9
$DIMDEC
 70
     4
  9
$DIMTDEC
 70
     4
  9
$DIMALTU
 70
     2
  9
$DIMALTTD
 70
     4
  9
$DIMTXSTY
  7
ROMANS
  9
$DIMAUNIT
 70
     0
  9
$LUNITS
 70
     2
  9
$LUPREC
 70
     4
  9
$SKETCHINC
 40
1.0
  9
$FILLETRAD
 40
10.0
  9
$AUNITS
 70
     0
  9
$AUPREC
 70
     0
  9
$MENU
  1
.
  9
$ELEVATION
 40
0.0
  9
$PELEVATION
 40
0.0
  9
$THICKNESS
 40
0.0
  9
$LIMCHECK
 70
     0
  9
$BLIPMODE
 70
     0
  9
$CHAMFERA
 40
10.0
  9
$CHAMFERB
 40
10.0
  9
$CHAMFERC
 40
0.0
  9
$CHAMFERD
 40
0.0
  9
$SKPOLY
 70
     0
  9
$TDCREATE
 40
2450990.465911806
  9
$TDUPDATE
 40
2453313.473982627
  9
$TDINDWG
 40
5.5614777315
  9
$TDUSRTIMER
 40
5.5614777315
  9
$USRTIMER
 70
     1
  9
$ANGBASE
 50
0.0
  9
$ANGDIR
 70
     0
  9
$PDMODE
 70
     3
  9
$PDSIZE
 40
25.0
  9
$PLINEWID
 40
0.0
  9
$COORDS
 70
     1
  9
$SPLFRAME
 70
     0
  9
$SPLINETYPE
 70
     6
  9
$SPLINESEGS
 70
     8
  9
$ATTDIA
 70
     0
  9
$ATTREQ
 70
     1
  9
$HANDLING
 70
     1
  9
$HANDSEED
  5
713
  9
$SURFTAB1
 70
    24
  9
$SURFTAB2
 70
     2
  9
$SURFTYPE
 70
     6
  9
$SURFU
 70
     6
  9
$SURFV
 70
     6
  9
$UCSNAME
  2

  9
$UCSORG
 10
0.0
 20
0.0
 30
0.0
  9
$UCSXDIR
 10
1.0
 20
0.0
 30
0.0
  9
$UCSYDIR
 10
0.0
 20
1.0
 30
0.0
  9
$PUCSNAME
  2

  9
$PUCSORG
 10
0.0
 20
0.0
 30
0.0
  9
$PUCSXDIR
 10
1.0
 20
0.0
 30
0.0
  9
$PUCSYDIR
 10
0.0
 20
1.0
 30
0.0
  9
$USERI1
 70
    50
  9
$USERI2
 70
  1138
  9
$USERI3
 70
     2
  9
$USERI4
 70
     2
  9
$USERI5
 70
     6
  9
$USERR1
 40
281.0
  9
$USERR2
 40
321.0
  9
$USERR3
 40
0.0
  9
$USERR4
 40
0.0
  9
$USERR5
 40
0.0
  9
$WORLDVIEW
 70
     1
  9
$SHADEDGE
 70
     3
  9
$SHADEDIF
 70
    70
  9
$TILEMODE
 70
     1
  9
$MAXACTVP
 70
    48
  9
$PINSBASE
 10
0.0
 20
0.0
 30
0.0
  9
$PLIMCHECK
 70
     0
  9
$PEXTMIN
 10
1.000000E+20
 20
1.000000E+20
 30
1.000000E+20
  9
$PEXTMAX
 10
-1.000000E+20
 20
-1.000000E+20
 30
-1.000000E+20
  9
$PLIMMIN
 10
0.0
 20
0.0
  9
$PLIMMAX
 10
420.0
 20
297.0
  9
$UNITMODE
 70
     0
  9
$VISRETAIN
 70
     1
  9
$PLINEGEN
 70
     0
  9
$PSLTSCALE
 70
     1
  9
$TREEDEPTH
 70
  3020
  9
$PICKSTYLE
 70
     1
  9
$CMLSTYLE
  2
STANDARD
  9
$CMLJUST
 70
     0
  9
$CMLSCALE
 40
1.0
  9
$PROXYGRAPHICS
 70
     1
  9
$MEASUREMENT
 70
     0
  0
ENDSEC
  0
SECTION
  2
CLASSES
  0
CLASS
  1
DICTIONARYVAR
  2
AcDbDictionaryVar
  3
"AutoCAD"
 90
        0
280
     0
281
     0
  0
CLASS
  1
LWPOLYLINE
  2
AcDbPolyline
  3
"AutoCAD"
 90
        0
280
     0
281
     1
  0
ENDSEC
  0
SECTION
  2
TABLES
  0
TABLE
  2
VPORT
  5
12
100
AcDbSymbolTable
 70
    10
  0
VPORT
  5
712
100
AcDbSymbolTableRecord
100
AcDbViewportTableRecord
  2
*ACTIVE
 70
     0
 10
0.0
 20
0.0
 11
1.0
 21
1.0
 12
0.0
 22
133.712292
 13
0.0
 23
0.0
 14
10.0
 24
10.0
 15
10.0
 25
10.0
 16
2.312222
 26
-3.533981
 36
1.376803
 17
0.0
 27
0.0
 37
0.0
 40
468.554622
 41
1.523346
 42
50.0
 43
0.0
 44
0.0
 50
0.0
 51
0.0
 71
     0
 72
   100
 73
     1
 74
     1
 75
     0
 76
     0
 77
     0
 78
     0
  0
ENDTAB
  0
TABLE
  2
LTYPE
  5
D
100
AcDbSymbolTable
 70
     1
  0
LTYPE
  5
E
100
AcDbSymbolTableRecord
100
AcDbLinetypeTableRecord
  2
BYBLOCK
 70
     0
  3

 72
    65
 73
     0
 40
0.0
  0
LTYPE
  5
F
100
AcDbSymbolTableRecord
100
AcDbLinetypeTableRecord
  2
BYLAYER
 70
     0
  3

 72
    65
 73
     0
 40
0.0
  0
LTYPE
  5
5
100
AcDbSymbolTableRecord
100
AcDbLinetypeTableRecord
  2
CONTINUOUS
 70
     0
  3
Solid line
 72
    65
 73
     0
 40
0.0
  0
ENDTAB
  0
TABLE
  2
LAYER
  5
A
100
AcDbSymbolTable
 70
     2
  0
LAYER
  5
4
100
AcDbSymbolTableRecord
100
AcDbLayerTableRecord
  2
0
 70
     0
 62
     7
  6
CONTINUOUS
  0
LAYER
  5
F7
100
AcDbSymbolTableRecord
100
AcDbLayerTableRecord
  2
DEFPOINTS
 70
     0
 62
     7
  6
CONTINUOUS
  0
ENDTAB
  0
TABLE
  2
STYLE
  5
B
100
AcDbSymbolTable
 70
     2
  0
STYLE
  5
C
100
AcDbSymbolTableRecord
100
AcDbTextStyleTableRecord
  2
STANDARD
 70
     0
 40
0.0
 41
0.8
 50
0.0
 71
     0
 42
2.5
  3
txt.shx
  4

  0
STYLE
  5
1C
100
AcDbSymbolTableRecord
100
AcDbTextStyleTableRecord
  2
ROMANS
 70
     0
 40
100.0
 41
0.8
 50
0.0
 71
     0
 42
100.0
  3
romans.shx
  4

  0
ENDTAB
  0
TABLE
  2
VIEW
  5
10
100
AcDbSymbolTable
 70
     0
  0
ENDTAB
  0
TABLE
  2
UCS
  5
11
100
AcDbSymbolTable
 70
     0
  0
ENDTAB
  0
TABLE
  2
APPID
  5
14
100
AcDbSymbolTable
 70
     1
  0
APPID
  5
15
100
AcDbSymbolTableRecord
100
AcDbRegAppTableRecord
  2
ACAD
 70
     0
  0
ENDTAB
  0
TABLE
  2
DIMSTYLE
  5
16
100
AcDbSymbolTable
 70
     1
  0
DIMSTYLE
105
1E
100
AcDbSymbolTableRecord
100
AcDbDimStyleTableRecord
  2
STANEK
 70
     0
  3

  4

  5

  6
_OBLIQUE
  7
_OBLIQUE
 40
0.0
 41
2.0
 42
0.625
 43
3.75
 44
1.0
 45
1.0
 46
0.0
 47
0.0
 48
0.0
140
2.2
141
-100.0
142
0.0
143
0.0394
144
2.2
145
2.0
146
2.2
147
0.625
 71
     0
 72
     0
 73
     0
 74
     0
 75
     0
 76
     0
 77
     1
 78
     8
170
     0
171
     4
172
     1
173
     1
174
     0
175
     0
176
     1
177
     1
178
     1
270
     2
271
     4
272
     4
273
     2
274
     4
340
1C
275
     0
280
     0
281
     0
282
     0
283
     1
284
     8
285
     8
286
     8
287
     5
288
     0
  0
ENDTAB
  0
TABLE
  2
BLOCK_RECORD
  5
1
100
AcDbSymbolTable
 70
     3
  0
BLOCK_RECORD
  5
2
100
AcDbSymbolTableRecord
100
AcDbBlockTableRecord
  2
*MODEL_SPACE
  0
BLOCK_RECORD
  5
7
100
AcDbSymbolTableRecord
100
AcDbBlockTableRecord
  2
*PAPER_SPACE
  0
BLOCK_RECORD
  5
1F
100
AcDbSymbolTableRecord
100
AcDbBlockTableRecord
  2
_OBLIQUE
  0
BLOCK_RECORD
  5
EF
100
AcDbSymbolTableRecord
100
AcDbBlockTableRecord
  2
*D1
  0
BLOCK_RECORD
  5
704
100
AcDbSymbolTableRecord
100
AcDbBlockTableRecord
  2
*D2
  0
ENDTAB
  0
ENDSEC
  0
SECTION
  2
BLOCKS
  0
BLOCK
  5
3
100
AcDbEntity
  8
0
 62
     1
100
AcDbBlockBegin
  2
*MODEL_SPACE
 70
     0
 10
0.0
 20
0.0
 30
0.0
  3
*MODEL_SPACE
  1

  0
ENDBLK
  5
6
100
AcDbEntity
  8
0
 62
     1
100
AcDbBlockEnd
  0
BLOCK
  5
8
100
AcDbEntity
 67
     1
  8
0
 62
     1
100
AcDbBlockBegin
  2
*PAPER_SPACE
 70
     0
 10
0.0
 20
0.0
 30
0.0
  3
*PAPER_SPACE
  1

  0
ENDBLK
  5
9
100
AcDbEntity
 67
     1
  8
0
 62
     1
100
AcDbBlockEnd
  0
BLOCK
  5
21
100
AcDbEntity
  8
0
100
AcDbBlockBegin
  2
_OBLIQUE
 70
     0
 10
0.0
 20
0.0
 30
0.0
  3
_OBLIQUE
  1

  0
LINE
  5
20
100
AcDbEntity
  8
0
  6
BYBLOCK
 62
     0
100
AcDbLine
 10
-0.5
 20
-0.5
 30
0.0
 11
0.5
 21
0.5
 31
0.0
  0
ENDBLK
  5
22
100
AcDbEntity
  8
0
100
AcDbBlockEnd
  0
BLOCK
  5
11E
100
AcDbEntity
  8
0
100
AcDbBlockBegin
  2
*D1
 70
     1
 10
0.0
 20
0.0
 30
0.0
  3
*D1
  1

  0
LINE
  5
11F
100
AcDbEntity
  8
0
  6
BYBLOCK
 62
     4
100
AcDbLine
 10
-229.765413
 20
212.523374
 30
0.0
 11
-275.859133
 21
212.523374
 31
0.0
  0
LINE
  5
120
100
AcDbEntity
  8
0
  6
BYBLOCK
 62
     4
100
AcDbLine
 10
-222.109171
 20
-37.499314
 30
0.0
 11
-275.859133
 21
-37.499314
 31
0.0
  0
LINE
  5
121
100
AcDbEntity
  8
0
  6
BYBLOCK
 62
     4
100
AcDbLine
 10
-225.859133
 20
212.523374
 30
0.0
 11
-225.859133
 21
-37.499314
 31
0.0
  0
MTEXT
  5
122
100
AcDbEntity
  8
0
  6
BYBLOCK
 62
     4
100
AcDbMText
 10
-372.734133
 20
87.51203
 30
0.0
 40
100.0
 41
0.0
 71
     5
 72
     1
  1
\A1;250
  7
ROMANS
 11
0.0
 21
1.0
 31
0.0
  0
INSERT
  5
123
100
AcDbEntity
  8
0
  6
BYBLOCK
 62
     4
100
AcDbBlockReference
  2
_OBLIQUE
 10
-225.859133
 20
212.523374
 30
0.0
 41
100.0
 42
100.0
 43
100.0
 50
90.0
  0
INSERT
  5
124
100
AcDbEntity
  8
0
  6
BYBLOCK
 62
     4
100
AcDbBlockReference
  2
_OBLIQUE
 10
-225.859133
 20
-37.499314
 30
0.0
 41
100.0
 42
100.0
 43
100.0
 50
270.0
  0
POINT
  5
125
100
AcDbEntity
  8
DEFPOINTS
  6
BYBLOCK
 62
     0
100
AcDbPoint
 10
-198.515413
 20
212.523374
 30
0.0
  0
POINT
  5
126
100
AcDbEntity
  8
DEFPOINTS
  6
BYBLOCK
 62
     0
100
AcDbPoint
 10
-190.859171
 20
-37.499314
 30
0.0
  0
POINT
  5
127
100
AcDbEntity
  8
DEFPOINTS
  6
BYBLOCK
 62
     0
100
AcDbPoint
 10
-225.859133
 20
-37.499314
 30
0.0
  0
ENDBLK
  5
128
100
AcDbEntity
  8
0
100
AcDbBlockEnd
  0
BLOCK
  5
705
100
AcDbEntity
  8
0
100
AcDbBlockBegin
  2
*D2
 70
     1
 10
0.0
 20
0.0
 30
0.0
  3
*D2
  1

  0
LINE
  5
706
100
AcDbEntity
  8
0
  6
BYBLOCK
 62
     4
100
AcDbLine
 10
-259.326575
 20
280.987082
 30
0.0
 11
-364.851209
 21
280.987082
 31
0.0
  0
LINE
  5
707
100
AcDbEntity
  8
0
  6
BYBLOCK
 62
     4
100
AcDbLine
 10
-254.636054
 20
-0.256427
 30
0.0
 11
-364.851209
 21
-0.256427
 31
0.0
  0
LINE
  5
708
100
AcDbEntity
  8
0
  6
BYBLOCK
 62
     4
100
AcDbLine
 10
-314.851209
 20
280.987082
 30
0.0
 11
-314.851209
 21
-0.256427
 31
0.0
  0
INSERT
  5
709
100
AcDbEntity
  8
0
  6
BYBLOCK
 62
     4
100
AcDbBlockReference
  2
_OBLIQUE
 10
-314.851209
 20
280.987082
 30
0.0
 41
100.0
 42
100.0
 43
100.0
 50
90.0
  0
INSERT
  5
70A
100
AcDbEntity
  8
0
  6
BYBLOCK
 62
     4
100
AcDbBlockReference
  2
_OBLIQUE
 10
-314.851209
 20
-0.256427
 30
0.0
 41
100.0
 42
100.0
 43
100.0
 50
270.0
  0
MTEXT
  5
70B
100
AcDbEntity
  8
0
  6
BYBLOCK
 62
     4
100
AcDbMText
 10
-396.101209
 20
140.365328
 30
0.0
 40
100.0
 41
0.0
 71
     5
 72
     1
  1
\A1;281
  7
ROMANS
 11
0.0
 21
1.0
 31
0.0
  0
POINT
  5
70C
100
AcDbEntity
  8
DEFPOINTS
  6
BYBLOCK
 62
     0
100
AcDbPoint
 10
-228.076575
 20
280.987082
 30
0.0
  0
POINT
  5
70D
100
AcDbEntity
  8
DEFPOINTS
  6
BYBLOCK
 62
     0
100
AcDbPoint
 10
-223.386054
 20
-0.256427
 30
0.0
  0
POINT
  5
70E
100
AcDbEntity
  8
DEFPOINTS
  6
BYBLOCK
 62
     0
100
AcDbPoint
 10
-314.851209
 20
-0.256427
 30
0.0
  0
ENDBLK
  5
70F
100
AcDbEntity
  8
0
100
AcDbBlockEnd
  0
ENDSEC
  0
SECTION
  2
ENTITIES
  0
LINE
  5
CD
100
AcDbEntity
  8
0
  6
CONTINUOUS
100
AcDbLine
 10
-228.089933
 20
0.0
 30
104.075198
 11
-228.089933
 21
0.0
 31
177.20187
210
-1.0
220
0.0000000000000001
230
-0.0000000000000002
  0
CIRCLE
  5
CE
100
AcDbEntity
  8
0
  6
CONTINUOUS
100
AcDbCircle
 10
0.0
 20
140.638534
 30
228.089933
 40
43.536648
210
-1.0
220
0.0000000000000001
230
-0.0000000000000002
  0
LINE
  5
CF
100
AcDbEntity
  8
0
  6
CONTINUOUS
100
AcDbLine
 10
-228.089933
 20
-30.785059
 30
109.853474
 11
-228.089933
 21
30.785059
 31
171.423593
210
-1.0
220
0.0000000000000001
230
-0.0000000000000002
  0
LINE
  5
D0
100
AcDbEntity
  8
0
  6
CONTINUOUS
100
AcDbLine
 10
-228.089933
 20
-30.785059
 30
171.423593
 11
-228.089933
 21
30.785059
 31
109.853474
210
-1.0
220
0.0000000000000001
230
-0.0000000000000002
  0
LINE
  5
D1
100
AcDbEntity
  8
0
  6
CONTINUOUS
100
AcDbLine
 10
-228.089933
 20
-43.536648
 30
140.638534
 11
-228.089933
 21
43.536648
 31
140.638534
210
-1.0
220
0.0000000000000001
230
-0.0000000000000002
  0
LINE
  5
D2
100
AcDbEntity
  8
0
  6
CONTINUOUS
100
AcDbLine
 10
0.0
 20
-228.089933
 30
97.101885
 11
0.0
 21
-228.089933
 31
184.175182
210
-0.0000000000000002
220
-1.0
230
-0.0000000000000002
  0
CIRCLE
  5
D3
100
AcDbEntity
  8
0
  6
CONTINUOUS
100
AcDbCircle
 10
0.0
 20
140.638534
 30
228.089933
 40
43.536648
210
-0.0000000000000002
220
-1.0
230
-0.0000000000000002
  0
LINE
  5
D4
100
AcDbEntity
  8
0
  6
CONTINUOUS
100
AcDbLine
 10
30.785059
 20
-228.089933
 30
109.853474
 11
-30.785059
 21
-228.089933
 31
171.423593
210
-0.0000000000000002
220
-1.0
230
-0.0000000000000002
  0
LINE
  5
D5
100
AcDbEntity
  8
0
  6
CONTINUOUS
100
AcDbLine
 10
30.785059
 20
-228.089933
 30
171.423593
 11
-30.785059
 21
-228.089933
 31
109.853474
210
-0.0000000000000002
220
-1.0
230
-0.0000000000000002
  0
LINE
  5
D6
100
AcDbEntity
  8
0
  6
CONTINUOUS
100
AcDbLine
 10
43.536648
 20
-228.089933
 30
140.638534
 11
-43.536648
 21
-228.089933
 31
140.638534
210
-0.0000000000000002
220
-1.0
230
-0.0000000000000002
  0
LINE
  5
D7
100
AcDbEntity
  8
0
  6
CONTINUOUS
100
AcDbLine
 10
0.0
 20
228.089933
 30
97.101885
 11
0.0
 21
228.089933
 31
184.175182
210
0.0000000000000001
220
1.0
230
-0.0000000000000002
  0
CIRCLE
  5
D8
100
AcDbEntity
  8
0
  6
CONTINUOUS
100
AcDbCircle
 10
0.0
 20
140.638534
 30
228.089933
 40
43.536648
210
0.0000000000000001
220
1.0
230
-0.0000000000000002
  0
LINE
  5
D9
100
AcDbEntity
  8
0
  6
CONTINUOUS
100
AcDbLine
 10
-30.785059
 20
228.089933
 30
109.853474
 11
30.785059
 21
228.089933
 31
171.423593
210
0.0000000000000001
220
1.0
230
-0.0000000000000002
  0
LINE
  5
DA
100
AcDbEntity
  8
0
  6
CONTINUOUS
100
AcDbLine
 10
-30.785059
 20
228.089933
 30
171.423593
 11
30.785059
 21
228.089933
 31
109.853474
210
0.0000000000000001
220
1.0
230
-0.0000000000000002
  0
LINE
  5
DB
100
AcDbEntity
  8
0
  6
CONTINUOUS
100
AcDbLine
 10
-43.536648
 20
228.089933
 30
140.638534
 11
43.536648
 21
228.089933
 31
140.638534
210
0.0000000000000001
220
1.0
230
-0.0000000000000002
  0
LINE
  5
DC
100
AcDbEntity
  8
0
  6
CONTINUOUS
100
AcDbLine
 10
228.089933
 20
0.0
 30
104.075198
 11
228.089933
 21
0.0
 31
177.20187
210
1.0
220
0.0
230
-0.0000000000000002
  0
CIRCLE
  5
DD
100
AcDbEntity
  8
0
  6
CONTINUOUS
100
AcDbCircle
 10
0.0
 20
140.638534
 30
228.089933
 40
43.536648
210
1.0
220
0.0
230
-0.0000000000000002
  0
LINE
  5
DE
100
AcDbEntity
  8
0
  6
CONTINUOUS
100
AcDbLine
 10
228.089933
 20
30.785059
 30
109.853474
 11
228.089933
 21
-30.785059
 31
171.423593
210
1.0
220
0.0
230
-0.0000000000000002
  0
LINE
  5
DF
100
AcDbEntity
  8
0
  6
CONTINUOUS
100
AcDbLine
 10
228.089933
 20
30.785059
 30
171.423593
 11
228.089933
 21
-30.785059
 31
109.853474
210
1.0
220
0.0
230
-0.0000000000000002
  0
LINE
  5
E0
100
AcDbEntity
  8
0
  6
CONTINUOUS
100
AcDbLine
 10
228.089933
 20
43.536648
 30
140.638534
 11
228.089933
 21
-43.536648
 31
140.638534
210
1.0
220
0.0
230
-0.0000000000000002
  0
POINT
  5
12A
100
AcDbEntity
  8
0
  6
CONTINUOUS
100
AcDbPoint
 10
0.0
 20
0.0
 30
281.277068
  0
LINE
  5
12B
100
AcDbEntity
  8
0
  6
CONTINUOUS
100
AcDbLine
 10
0.0
 20
0.0
 30
0.0
 11
0.0
 21
0.0
 31
281.277068
  0
POINT
  5
12C
100
AcDbEntity
  8
0
  6
CONTINUOUS
100
AcDbPoint
 10
0.0
 20
0.0
 30
0.0
  0
LINE
  5
130
100
AcDbEntity
  8
0
  6
CONTINUOUS
100
AcDbLine
 10
225.0
 20
0.0
 30
0.0
 11
225.0
 21
0.0
 31
134.556743
  0
LINE
  5
132
100
AcDbEntity
  8
0
  6
CONTINUOUS
100
AcDbLine
 10
225.0
 20
0.0
 30
145.462338
 11
225.0
 21
0.0
 31
281.277068
  0
ARC
  5
623
100
AcDbEntity
  8
0
  6
CONTINUOUS
100
AcDbCircle
 10
225.124057
 20
140.00954
 30
0.0
 40
5.454208
210
-0.0000000000000002
220
-1.0
230
0.0
100
AcDbArc
 50
91.30332
 51
268.69668
  0
POLYLINE
  5
624
100
AcDbEntity
  8
0
  6
CONTINUOUS
100
AcDbPolygonMesh
 66
     1
 10
0.0
 20
0.0
 30
0.0
 70
    17
 71
    24
 72
     3
  0
VERTEX
  5
625
100
AcDbEntity
  8
0
  6
CONTINUOUS
100
AcDbVertex
100
AcDbPolygonMeshVertex
 10
225.0
 20
0.0
 30
0.0
 70
    64
  0
VERTEX
  5
626
100
AcDbEntity
  8
0
  6
CONTINUOUS
100
AcDbVertex
100
AcDbPolygonMeshVertex
 10
225.0
 20
0.0
 30
67.278372
 70
    64
  0
VERTEX
  5
627
100
AcDbEntity
  8
0
  6
CONTINUOUS
100
AcDbVertex
100
AcDbPolygonMeshVertex
 10
225.0
 20
0.0
 30
134.556743
 70
    64
  0
VERTEX
  5
628
100
AcDbEntity
  8
0
  6
CONTINUOUS
100
AcDbVertex
100
AcDbPolygonMeshVertex
 10
217.333311
 20
58.234285
 30
0.0
 70
    64
  0
VERTEX
  5
629
100
AcDbEntity
  8
0
  6
CONTINUOUS
100
AcDbVertex
100
AcDbPolygonMeshVertex
 10
217.333311
 20
58.234285
 30
67.278372
 70
    64
  0
VERTEX
  5
62A
100
AcDbEntity
  8
0
  6
CONTINUOUS
100
AcDbVertex
100
AcDbPolygonMeshVertex
 10
217.333311
 20
58.234285
 30
134.556743
 70
    64
  0
VERTEX
  5
62B
100
AcDbEntity
  8
0
  6
CONTINUOUS
100
AcDbVertex
100
AcDbPolygonMeshVertex
 10
194.855716
 20
112.5
 30
0.0
 70
    64
  0
VERTEX
  5
62C
100
AcDbEntity
  8
0
  6
CONTINUOUS
100
AcDbVertex
100
AcDbPolygonMeshVertex
 10
194.855716
 20
112.5
 30
67.278372
 70
    64
  0
VERTEX
  5
62D
100
AcDbEntity
  8
0
  6
CONTINUOUS
100
AcDbVertex
100
AcDbPolygonMeshVertex
 10
194.855716
 20
112.5
 30
134.556743
 70
    64
  0
VERTEX
  5
62E
100
AcDbEntity
  8
0
  6
CONTINUOUS
100
AcDbVertex
100
AcDbPolygonMeshVertex
 10
159.099026
 20
159.099026
 30
0.0
 70
    64
  0
VERTEX
  5
62F
100
AcDbEntity
  8
0
  6
CONTINUOUS
100
AcDbVertex
100
AcDbPolygonMeshVertex
 10
159.099026
 20
159.099026
 30
67.278372
 70
    64
  0
VERTEX
  5
630
100
AcDbEntity
  8
0
  6
CONTINUOUS
100
AcDbVertex
100
AcDbPolygonMeshVertex
 10
159.099026
 20
159.099026
 30
134.556743
 70
    64
  0
VERTEX
  5
631
100
AcDbEntity
  8
0
  6
CONTINUOUS
100
AcDbVertex
100
AcDbPolygonMeshVertex
 10
112.5
 20
194.855716
 30
0.0
 70
    64
  0
VERTEX
  5
632
100
AcDbEntity
  8
0
  6
CONTINUOUS
100
AcDbVertex
100
AcDbPolygonMeshVertex
 10
112.5
 20
194.855716
 30
67.278372
 70
    64
  0
VERTEX
  5
633
100
AcDbEntity
  8
0
  6
CONTINUOUS
100
AcDbVertex
100
AcDbPolygonMeshVertex
 10
112.5
 20
194.855716
 30
134.556743
 70
    64
  0
VERTEX
  5
634
100
AcDbEntity
  8
0
  6
CONTINUOUS
100
AcDbVertex
100
AcDbPolygonMeshVertex
 10
58.234285
 20
217.333311
 30
0.0
 70
    64
  0
VERTEX
  5
635
100
AcDbEntity
  8
0
  6
CONTINUOUS
100
AcDbVertex
100
AcDbPolygonMeshVertex
 10
58.234285
 20
217.333311
 30
67.278372
 70
    64
  0
VERTEX
  5
636
100
AcDbEntity
  8
0
  6
CONTINUOUS
100
AcDbVertex
100
AcDbPolygonMeshVertex
 10
58.234285
 20
217.333311
 30
134.556743
 70
    64
  0
VERTEX
  5
637
100
AcDbEntity
  8
0
  6
CONTINUOUS
100
AcDbVertex
100
AcDbPolygonMeshVertex
 10
0.0
 20
225.0
 30
0.0
 70
    64
  0
VERTEX
  5
638
100
AcDbEntity
  8
0
  6
CONTINUOUS
100
AcDbVertex
100
AcDbPolygonMeshVertex
 10
0.0
 20
225.0
 30
67.278372
 70
    64
  0
VERTEX
  5
639
100
AcDbEntity
  8
0
  6
CONTINUOUS
100
AcDbVertex
100
AcDbPolygonMeshVertex
 10
0.0
 20
225.0
 30
134.556743
 70
    64
  0
VERTEX
  5
63A
100
AcDbEntity
  8
0
  6
CONTINUOUS
100
AcDbVertex
100
AcDbPolygonMeshVertex
 10
-58.234285
 20
217.333311
 30
0.0
 70
    64
  0
VERTEX
  5
63B
100
AcDbEntity
  8
0
  6
CONTINUOUS
100
AcDbVertex
100
AcDbPolygonMeshVertex
 10
-58.234285
 20
217.333311
 30
67.278372
 70
    64
  0
VERTEX
  5
63C
100
AcDbEntity
  8
0
  6
CONTINUOUS
100
AcDbVertex
100
AcDbPolygonMeshVertex
 10
-58.234285
 20
217.333311
 30
134.556743
 70
    64
  0
VERTEX
  5
63D
100
AcDbEntity
  8
0
  6
CONTINUOUS
100
AcDbVertex
100
AcDbPolygonMeshVertex
 10
-112.5
 20
194.855716
 30
0.0
 70
    64
  0
VERTEX
  5
63E
100
AcDbEntity
  8
0
  6
CONTINUOUS
100
AcDbVertex
100
AcDbPolygonMeshVertex
 10
-112.5
 20
194.855716
 30
67.278372
 70
    64
  0
VERTEX
  5
63F
100
AcDbEntity
  8
0
  6
CONTINUOUS
100
AcDbVertex
100
AcDbPolygonMeshVertex
 10
-112.5
 20
194.855716
 30
134.556743
 70
    64
  0
VERTEX
  5
640
100
AcDbEntity
  8
0
  6
CONTINUOUS
100
AcDbVertex
100
AcDbPolygonMeshVertex
 10
-159.099026
 20
159.099026
 30
0.0
 70
    64
  0
VERTEX
  5
641
100
AcDbEntity
  8
0
  6
CONTINUOUS
100
AcDbVertex
100
AcDbPolygonMeshVertex
 10
-159.099026
 20
159.099026
 30
67.278372
 70
    64
  0
VERTEX
  5
642
100
AcDbEntity
  8
0
  6
CONTINUOUS
100
AcDbVertex
100
AcDbPolygonMeshVertex
 10
-159.099026
 20
159.099026
 30
134.556743
 70
    64
  0
VERTEX
  5
643
100
AcDbEntity
  8
0
  6
CONTINUOUS
100
AcDbVertex
100
AcDbPolygonMeshVertex
 10
-194.855716
 20
112.5
 30
0.0
 70
    64
  0
VERTEX
  5
644
100
AcDbEntity
  8
0
  6
CONTINUOUS
100
AcDbVertex
100
AcDbPolygonMeshVertex
 10
-194.855716
 20
112.5
 30
67.278372
 70
    64
  0
VERTEX
  5
645
100
AcDbEntity
  8
0
  6
CONTINUOUS
100
AcDbVertex
100
AcDbPolygonMeshVertex
 10
-194.855716
 20
112.5
 30
134.556743
 70
    64
  0
VERTEX
  5
646
100
AcDbEntity
  8
0
  6
CONTINUOUS
100
AcDbVertex
100
AcDbPolygonMeshVertex
 10
-217.333311
 20
58.234285
 30
0.0
 70
    64
  0
VERTEX
  5
647
100
AcDbEntity
  8
0
  6
CONTINUOUS
100
AcDbVertex
100
AcDbPolygonMeshVertex
 10
-217.333311
 20
58.234285
 30
67.278372
 70
    64
  0
VERTEX
  5
648
100
AcDbEntity
  8
0
  6
CONTINUOUS
100
AcDbVertex
100
AcDbPolygonMeshVertex
 10
-217.333311
 20
58.234285
 30
134.556743
 70
    64
  0
VERTEX
  5
649
100
AcDbEntity
  8
0
  6
CONTINUOUS
100
AcDbVertex
100
AcDbPolygonMeshVertex
 10
-225.0
 20
0.0
 30
0.0
 70
    64
  0
VERTEX
  5
64A
100
AcDbEntity
  8
0
  6
CONTINUOUS
100
AcDbVertex
100
AcDbPolygonMeshVertex
 10
-225.0
 20
0.0
 30
67.278372
 70
    64
  0
VERTEX
  5
64B
100
AcDbEntity
  8
0
  6
CONTINUOUS
100
AcDbVertex
100
AcDbPolygonMeshVertex
 10
-225.0
 20
0.0
 30
134.556743
 70
    64
  0
VERTEX
  5
64C
100
AcDbEntity
  8
0
  6
CONTINUOUS
100
AcDbVertex
100
AcDbPolygonMeshVertex
 10
-217.333311
 20
-58.234285
 30
0.0
 70
    64
  0
VERTEX
  5
64D
100
AcDbEntity
  8
0
  6
CONTINUOUS
100
AcDbVertex
100
AcDbPolygonMeshVertex
 10
-217.333311
 20
-58.234285
 30
67.278372
 70
    64
  0
VERTEX
  5
64E
100
AcDbEntity
  8
0
  6
CONTINUOUS
100
AcDbVertex
100
AcDbPolygonMeshVertex
 10
-217.333311
 20
-58.234285
 30
134.556743
 70
    64
  0
VERTEX
  5
64F
100
AcDbEntity
  8
0
  6
CONTINUOUS
100
AcDbVertex
100
AcDbPolygonMeshVertex
 10
-194.855716
 20
-112.5
 30
0.0
 70
    64
  0
VERTEX
  5
650
100
AcDbEntity
  8
0
  6
CONTINUOUS
100
AcDbVertex
100
AcDbPolygonMeshVertex
 10
-194.855716
 20
-112.5
 30
67.278372
 70
    64
  0
VERTEX
  5
651
100
AcDbEntity
  8
0
  6
CONTINUOUS
100
AcDbVertex
100
AcDbPolygonMeshVertex
 10
-194.855716
 20
-112.5
 30
134.556743
 70
    64
  0
VERTEX
  5
652
100
AcDbEntity
  8
0
  6
CONTINUOUS
100
AcDbVertex
100
AcDbPolygonMeshVertex
 10
-159.099026
 20
-159.099026
 30
0.0
 70
    64
  0
VERTEX
  5
653
100
AcDbEntity
  8
0
  6
CONTINUOUS
100
AcDbVertex
100
AcDbPolygonMeshVertex
 10
-159.099026
 20
-159.099026
 30
67.278372
 70
    64
  0
VERTEX
  5
654
100
AcDbEntity
  8
0
  6
CONTINUOUS
100
AcDbVertex
100
AcDbPolygonMeshVertex
 10
-159.099026
 20
-159.099026
 30
134.556743
 70
    64
  0
VERTEX
  5
655
100
AcDbEntity
  8
0
  6
CONTINUOUS
100
AcDbVertex
100
AcDbPolygonMeshVertex
 10
-112.5
 20
-194.855716
 30
0.0
 70
    64
  0
VERTEX
  5
656
100
AcDbEntity
  8
0
  6
CONTINUOUS
100
AcDbVertex
100
AcDbPolygonMeshVertex
 10
-112.5
 20
-194.855716
 30
67.278372
 70
    64
  0
VERTEX
  5
657
100
AcDbEntity
  8
0
  6
CONTINUOUS
100
AcDbVertex
100
AcDbPolygonMeshVertex
 10
-112.5
 20
-194.855716
 30
134.556743
 70
    64
  0
VERTEX
  5
658
100
AcDbEntity
  8
0
  6
CONTINUOUS
100
AcDbVertex
100
AcDbPolygonMeshVertex
 10
-58.234285
 20
-217.333311
 30
0.0
 70
    64
  0
VERTEX
  5
659
100
AcDbEntity
  8
0
  6
CONTINUOUS
100
AcDbVertex
100
AcDbPolygonMeshVertex
 10
-58.234285
 20
-217.333311
 30
67.278372
 70
    64
  0
VERTEX
  5
65A
100
AcDbEntity
  8
0
  6
CONTINUOUS
100
AcDbVertex
100
AcDbPolygonMeshVertex
 10
-58.234285
 20
-217.333311
 30
134.556743
 70
    64
  0
VERTEX
  5
65B
100
AcDbEntity
  8
0
  6
CONTINUOUS
100
AcDbVertex
100
AcDbPolygonMeshVertex
 10
0.0
 20
-225.0
 30
0.0
 70
    64
  0
VERTEX
  5
65C
100
AcDbEntity
  8
0
  6
CONTINUOUS
100
AcDbVertex
100
AcDbPolygonMeshVertex
 10
0.0
 20
-225.0
 30
67.278372
 70
    64
  0
VERTEX
  5
65D
100
AcDbEntity
  8
0
  6
CONTINUOUS
100
AcDbVertex
100
AcDbPolygonMeshVertex
 10
0.0
 20
-225.0
 30
134.556743
 70
    64
  0
VERTEX
  5
65E
100
AcDbEntity
  8
0
  6
CONTINUOUS
100
AcDbVertex
100
AcDbPolygonMeshVertex
 10
58.234285
 20
-217.333311
 30
0.0
 70
    64
  0
VERTEX
  5
65F
100
AcDbEntity
  8
0
  6
CONTINUOUS
100
AcDbVertex
100
AcDbPolygonMeshVertex
 10
58.234285
 20
-217.333311
 30
67.278372
 70
    64
  0
VERTEX
  5
660
100
AcDbEntity
  8
0
  6
CONTINUOUS
100
AcDbVertex
100
AcDbPolygonMeshVertex
 10
58.234285
 20
-217.333311
 30
134.556743
 70
    64
  0
VERTEX
  5
661
100
AcDbEntity
  8
0
  6
CONTINUOUS
100
AcDbVertex
100
AcDbPolygonMeshVertex
 10
112.5
 20
-194.855716
 30
0.0
 70
    64
  0
VERTEX
  5
662
100
AcDbEntity
  8
0
  6
CONTINUOUS
100
AcDbVertex
100
AcDbPolygonMeshVertex
 10
112.5
 20
-194.855716
 30
67.278372
 70
    64
  0
VERTEX
  5
663
100
AcDbEntity
  8
0
  6
CONTINUOUS
100
AcDbVertex
100
AcDbPolygonMeshVertex
 10
112.5
 20
-194.855716
 30
134.556743
 70
    64
  0
VERTEX
  5
664
100
AcDbEntity
  8
0
  6
CONTINUOUS
100
AcDbVertex
100
AcDbPolygonMeshVertex
 10
159.099026
 20
-159.099026
 30
0.0
 70
    64
  0
VERTEX
  5
665
100
AcDbEntity
  8
0
  6
CONTINUOUS
100
AcDbVertex
100
AcDbPolygonMeshVertex
 10
159.099026
 20
-159.099026
 30
67.278372
 70
    64
  0
VERTEX
  5
666
100
AcDbEntity
  8
0
  6
CONTINUOUS
100
AcDbVertex
100
AcDbPolygonMeshVertex
 10
159.099026
 20
-159.099026
 30
134.556743
 70
    64
  0
VERTEX
  5
667
100
AcDbEntity
  8
0
  6
CONTINUOUS
100
AcDbVertex
100
AcDbPolygonMeshVertex
 10
194.855716
 20
-112.5
 30
0.0
 70
    64
  0
VERTEX
  5
668
100
AcDbEntity
  8
0
  6
CONTINUOUS
100
AcDbVertex
100
AcDbPolygonMeshVertex
 10
194.855716
 20
-112.5
 30
67.278372
 70
    64
  0
VERTEX
  5
669
100
AcDbEntity
  8
0
  6
CONTINUOUS
100
AcDbVertex
100
AcDbPolygonMeshVertex
 10
194.855716
 20
-112.5
 30
134.556743
 70
    64
  0
VERTEX
  5
66A
100
AcDbEntity
  8
0
  6
CONTINUOUS
100
AcDbVertex
100
AcDbPolygonMeshVertex
 10
217.333311
 20
-58.234285
 30
0.0
 70
    64
  0
VERTEX
  5
66B
100
AcDbEntity
  8
0
  6
CONTINUOUS
100
AcDbVertex
100
AcDbPolygonMeshVertex
 10
217.333311
 20
-58.234285
 30
67.278372
 70
    64
  0
VERTEX
  5
66C
100
AcDbEntity
  8
0
  6
CONTINUOUS
100
AcDbVertex
100
AcDbPolygonMeshVertex
 10
217.333311
 20
-58.234285
 30
134.556743
 70
    64
  0
SEQEND
  5
66D
100
AcDbEntity
  8
0
  6
CONTINUOUS
  0
POLYLINE
  5
66E
100
AcDbEntity
  8
0
  6
CONTINUOUS
100
AcDbPolygonMesh
 66
     1
 10
0.0
 20
0.0
 30
0.0
 70
    17
 71
    24
 72
     3
  0
VERTEX
  5
66F
100
AcDbEntity
  8
0
  6
CONTINUOUS
100
AcDbVertex
100
AcDbPolygonMeshVertex
 10
225.0
 20
0.0
 30
145.462338
 70
    64
  0
VERTEX
  5
670
100
AcDbEntity
  8
0
  6
CONTINUOUS
100
AcDbVertex
100
AcDbPolygonMeshVertex
 10
219.669849
 20
0.0
 30
140.00954
 70
    64
  0
VERTEX
  5
671
100
AcDbEntity
  8
0
  6
CONTINUOUS
100
AcDbVertex
100
AcDbPolygonMeshVertex
 10
225.0
 20
0.0
 30
134.556743
 70
    64
  0
VERTEX
  5
672
100
AcDbEntity
  8
0
  6
CONTINUOUS
100
AcDbVertex
100
AcDbPolygonMeshVertex
 10
217.333311
 20
58.234285
 30
145.462338
 70
    64
  0
VERTEX
  5
673
100
AcDbEntity
  8
0
  6
CONTINUOUS
100
AcDbVertex
100
AcDbPolygonMeshVertex
 10
212.184781
 20
56.854741
 30
140.00954
 70
    64
  0
VERTEX
  5
674
100
AcDbEntity
  8
0
  6
CONTINUOUS
100
AcDbVertex
100
AcDbPolygonMeshVertex
 10
217.333311
 20
58.234285
 30
134.556743
 70
    64
  0
VERTEX
  5
675
100
AcDbEntity
  8
0
  6
CONTINUOUS
100
AcDbVertex
100
AcDbPolygonMeshVertex
 10
194.855716
 20
112.5
 30
145.462338
 70
    64
  0
VERTEX
  5
676
100
AcDbEntity
  8
0
  6
CONTINUOUS
100
AcDbVertex
100
AcDbPolygonMeshVertex
 10
190.23967
 20
109.834925
 30
140.00954
 70
    64
  0
VERTEX
  5
677
100
AcDbEntity
  8
0
  6
CONTINUOUS
100
AcDbVertex
100
AcDbPolygonMeshVertex
 10
194.855716
 20
112.5
 30
134.556743
 70
    64
  0
VERTEX
  5
678
100
AcDbEntity
  8
0
  6
CONTINUOUS
100
AcDbVertex
100
AcDbPolygonMeshVertex
 10
159.099026
 20
159.099026
 30
145.462338
 70
    64
  0
VERTEX
  5
679
100
AcDbEntity
  8
0
  6
CONTINUOUS
100
AcDbVertex
100
AcDbPolygonMeshVertex
 10
155.33004
 20
155.33004
 30
140.00954
 70
    64
  0
VERTEX
  5
67A
100
AcDbEntity
  8
0
  6
CONTINUOUS
100
AcDbVertex
100
AcDbPolygonMeshVertex
 10
159.099026
 20
159.099026
 30
134.556743
 70
    64
  0
VERTEX
  5
67B
100
AcDbEntity
  8
0
  6
CONTINUOUS
100
AcDbVertex
100
AcDbPolygonMeshVertex
 10
112.5
 20
194.855716
 30
145.462338
 70
    64
  0
VERTEX
  5
67C
100
AcDbEntity
  8
0
  6
CONTINUOUS
100
AcDbVertex
100
AcDbPolygonMeshVertex
 10
109.834925
 20
190.23967
 30
140.00954
 70
    64
  0
VERTEX
  5
67D
100
AcDbEntity
  8
0
  6
CONTINUOUS
100
AcDbVertex
100
AcDbPolygonMeshVertex
 10
112.5
 20
194.855716
 30
134.556743
 70
    64
  0
VERTEX
  5
67E
100
AcDbEntity
  8
0
  6
CONTINUOUS
100
AcDbVertex
100
AcDbPolygonMeshVertex
 10
58.234285
 20
217.333311
 30
145.462338
 70
    64
  0
VERTEX
  5
67F
100
AcDbEntity
  8
0
  6
CONTINUOUS
100
AcDbVertex
100
AcDbPolygonMeshVertex
 10
56.854741
 20
212.184781
 30
140.00954
 70
    64
  0
VERTEX
  5
680
100
AcDbEntity
  8
0
  6
CONTINUOUS
100
AcDbVertex
100
AcDbPolygonMeshVertex
 10
58.234285
 20
217.333311
 30
134.556743
 70
    64
  0
VERTEX
  5
681
100
AcDbEntity
  8
0
  6
CONTINUOUS
100
AcDbVertex
100
AcDbPolygonMeshVertex
 10
0.0
 20
225.0
 30
145.462338
 70
    64
  0
VERTEX
  5
682
100
AcDbEntity
  8
0
  6
CONTINUOUS
100
AcDbVertex
100
AcDbPolygonMeshVertex
 10
0.0
 20
219.669849
 30
140.00954
 70
    64
  0
VERTEX
  5
683
100
AcDbEntity
  8
0
  6
CONTINUOUS
100
AcDbVertex
100
AcDbPolygonMeshVertex
 10
0.0
 20
225.0
 30
134.556743
 70
    64
  0
VERTEX
  5
684
100
AcDbEntity
  8
0
  6
CONTINUOUS
100
AcDbVertex
100
AcDbPolygonMeshVertex
 10
-58.234285
 20
217.333311
 30
145.462338
 70
    64
  0
VERTEX
  5
685
100
AcDbEntity
  8
0
  6
CONTINUOUS
100
AcDbVertex
100
AcDbPolygonMeshVertex
 10
-56.854741
 20
212.184781
 30
140.00954
 70
    64
  0
VERTEX
  5
686
100
AcDbEntity
  8
0
  6
CONTINUOUS
100
AcDbVertex
100
AcDbPolygonMeshVertex
 10
-58.234285
 20
217.333311
 30
134.556743
 70
    64
  0
VERTEX
  5
687
100
AcDbEntity
  8
0
  6
CONTINUOUS
100
AcDbVertex
100
AcDbPolygonMeshVertex
 10
-112.5
 20
194.855716
 30
145.462338
 70
    64
  0
VERTEX
  5
688
100
AcDbEntity
  8
0
  6
CONTINUOUS
100
AcDbVertex
100
AcDbPolygonMeshVertex
 10
-109.834925
 20
190.23967
 30
140.00954
 70
    64
  0
VERTEX
  5
689
100
AcDbEntity
  8
0
  6
CONTINUOUS
100
AcDbVertex
100
AcDbPolygonMeshVertex
 10
-112.5
 20
194.855716
 30
134.556743
 70
    64
  0
VERTEX
  5
68A
100
AcDbEntity
  8
0
  6
CONTINUOUS
100
AcDbVertex
100
AcDbPolygonMeshVertex
 10
-159.099026
 20
159.099026
 30
145.462338
 70
    64
  0
VERTEX
  5
68B
100
AcDbEntity
  8
0
  6
CONTINUOUS
100
AcDbVertex
100
AcDbPolygonMeshVertex
 10
-155.33004
 20
155.33004
 30
140.00954
 70
    64
  0
VERTEX
  5
68C
100
AcDbEntity
  8
0
  6
CONTINUOUS
100
AcDbVertex
100
AcDbPolygonMeshVertex
 10
-159.099026
 20
159.099026
 30
134.556743
 70
    64
  0
VERTEX
  5
68D
100
AcDbEntity
  8
0
  6
CONTINUOUS
100
AcDbVertex
100
AcDbPolygonMeshVertex
 10
-194.855716
 20
112.5
 30
145.462338
 70
    64
  0
VERTEX
  5
68E
100
AcDbEntity
  8
0
  6
CONTINUOUS
100
AcDbVertex
100
AcDbPolygonMeshVertex
 10
-190.23967
 20
109.834925
 30
140.00954
 70
    64
  0
VERTEX
  5
68F
100
AcDbEntity
  8
0
  6
CONTINUOUS
100
AcDbVertex
100
AcDbPolygonMeshVertex
 10
-194.855716
 20
112.5
 30
134.556743
 70
    64
  0
VERTEX
  5
690
100
AcDbEntity
  8
0
  6
CONTINUOUS
100
AcDbVertex
100
AcDbPolygonMeshVertex
 10
-217.333311
 20
58.234285
 30
145.462338
 70
    64
  0
VERTEX
  5
691
100
AcDbEntity
  8
0
  6
CONTINUOUS
100
AcDbVertex
100
AcDbPolygonMeshVertex
 10
-212.184781
 20
56.854741
 30
140.00954
 70
    64
  0
VERTEX
  5
692
100
AcDbEntity
  8
0
  6
CONTINUOUS
100
AcDbVertex
100
AcDbPolygonMeshVertex
 10
-217.333311
 20
58.234285
 30
134.556743
 70
    64
  0
VERTEX
  5
693
100
AcDbEntity
  8
0
  6
CONTINUOUS
100
AcDbVertex
100
AcDbPolygonMeshVertex
 10
-225.0
 20
0.0
 30
145.462338
 70
    64
  0
VERTEX
  5
694
100
AcDbEntity
  8
0
  6
CONTINUOUS
100
AcDbVertex
100
AcDbPolygonMeshVertex
 10
-219.669849
 20
0.0
 30
140.00954
 70
    64
  0
VERTEX
  5
695
100
AcDbEntity
  8
0
  6
CONTINUOUS
100
AcDbVertex
100
AcDbPolygonMeshVertex
 10
-225.0
 20
0.0
 30
134.556743
 70
    64
  0
VERTEX
  5
696
100
AcDbEntity
  8
0
  6
CONTINUOUS
100
AcDbVertex
100
AcDbPolygonMeshVertex
 10
-217.333311
 20
-58.234285
 30
145.462338
 70
    64
  0
VERTEX
  5
697
100
AcDbEntity
  8
0
  6
CONTINUOUS
100
AcDbVertex
100
AcDbPolygonMeshVertex
 10
-212.184781
 20
-56.854741
 30
140.00954
 70
    64
  0
VERTEX
  5
698
100
AcDbEntity
  8
0
  6
CONTINUOUS
100
AcDbVertex
100
AcDbPolygonMeshVertex
 10
-217.333311
 20
-58.234285
 30
134.556743
 70
    64
  0
VERTEX
  5
699
100
AcDbEntity
  8
0
  6
CONTINUOUS
100
AcDbVertex
100
AcDbPolygonMeshVertex
 10
-194.855716
 20
-112.5
 30
145.462338
 70
    64
  0
VERTEX
  5
69A
100
AcDbEntity
  8
0
  6
CONTINUOUS
100
AcDbVertex
100
AcDbPolygonMeshVertex
 10
-190.23967
 20
-109.834925
 30
140.00954
 70
    64
  0
VERTEX
  5
69B
100
AcDbEntity
  8
0
  6
CONTINUOUS
100
AcDbVertex
100
AcDbPolygonMeshVertex
 10
-194.855716
 20
-112.5
 30
134.556743
 70
    64
  0
VERTEX
  5
69C
100
AcDbEntity
  8
0
  6
CONTINUOUS
100
AcDbVertex
100
AcDbPolygonMeshVertex
 10
-159.099026
 20
-159.099026
 30
145.462338
 70
    64
  0
VERTEX
  5
69D
100
AcDbEntity
  8
0
  6
CONTINUOUS
100
AcDbVertex
100
AcDbPolygonMeshVertex
 10
-155.33004
 20
-155.33004
 30
140.00954
 70
    64
  0
VERTEX
  5
69E
100
AcDbEntity
  8
0
  6
CONTINUOUS
100
AcDbVertex
100
AcDbPolygonMeshVertex
 10
-159.099026
 20
-159.099026
 30
134.556743
 70
    64
  0
VERTEX
  5
69F
100
AcDbEntity
  8
0
  6
CONTINUOUS
100
AcDbVertex
100
AcDbPolygonMeshVertex
 10
-112.5
 20
-194.855716
 30
145.462338
 70
    64
  0
VERTEX
  5
6A0
100
AcDbEntity
  8
0
  6
CONTINUOUS
100
AcDbVertex
100
AcDbPolygonMeshVertex
 10
-109.834925
 20
-190.23967
 30
140.00954
 70
    64
  0
VERTEX
  5
6A1
100
AcDbEntity
  8
0
  6
CONTINUOUS
100
AcDbVertex
100
AcDbPolygonMeshVertex
 10
-112.5
 20
-194.855716
 30
134.556743
 70
    64
  0
VERTEX
  5
6A2
100
AcDbEntity
  8
0
  6
CONTINUOUS
100
AcDbVertex
100
AcDbPolygonMeshVertex
 10
-58.234285
 20
-217.333311
 30
145.462338
 70
    64
  0
VERTEX
  5
6A3
100
AcDbEntity
  8
0
  6
CONTINUOUS
100
AcDbVertex
100
AcDbPolygonMeshVertex
 10
-56.854741
 20
-212.184781
 30
140.00954
 70
    64
  0
VERTEX
  5
6A4
100
AcDbEntity
  8
0
  6
CONTINUOUS
100
AcDbVertex
100
AcDbPolygonMeshVertex
 10
-58.234285
 20
-217.333311
 30
134.556743
 70
    64
  0
VERTEX
  5
6A5
100
AcDbEntity
  8
0
  6
CONTINUOUS
100
AcDbVertex
100
AcDbPolygonMeshVertex
 10
0.0
 20
-225.0
 30
145.462338
 70
    64
  0
VERTEX
  5
6A6
100
AcDbEntity
  8
0
  6
CONTINUOUS
100
AcDbVertex
100
AcDbPolygonMeshVertex
 10
0.0
 20
-219.669849
 30
140.00954
 70
    64
  0
VERTEX
  5
6A7
100
AcDbEntity
  8
0
  6
CONTINUOUS
100
AcDbVertex
100
AcDbPolygonMeshVertex
 10
0.0
 20
-225.0
 30
134.556743
 70
    64
  0
VERTEX
  5
6A8
100
AcDbEntity
  8
0
  6
CONTINUOUS
100
AcDbVertex
100
AcDbPolygonMeshVertex
 10
58.234285
 20
-217.333311
 30
145.462338
 70
    64
  0
VERTEX
  5
6A9
100
AcDbEntity
  8
0
  6
CONTINUOUS
100
AcDbVertex
100
AcDbPolygonMeshVertex
 10
56.854741
 20
-212.184781
 30
140.00954
 70
    64
  0
VERTEX
  5
6AA
100
AcDbEntity
  8
0
  6
CONTINUOUS
100
AcDbVertex
100
AcDbPolygonMeshVertex
 10
58.234285
 20
-217.333311
 30
134.556743
 70
    64
  0
VERTEX
  5
6AB
100
AcDbEntity
  8
0
  6
CONTINUOUS
100
AcDbVertex
100
AcDbPolygonMeshVertex
 10
112.5
 20
-194.855716
 30
145.462338
 70
    64
  0
VERTEX
  5
6AC
100
AcDbEntity
  8
0
  6
CONTINUOUS
100
AcDbVertex
100
AcDbPolygonMeshVertex
 10
109.834925
 20
-190.23967
 30
140.00954
 70
    64
  0
VERTEX
  5
6AD
100
AcDbEntity
  8
0
  6
CONTINUOUS
100
AcDbVertex
100
AcDbPolygonMeshVertex
 10
112.5
 20
-194.855716
 30
134.556743
 70
    64
  0
VERTEX
  5
6AE
100
AcDbEntity
  8
0
  6
CONTINUOUS
100
AcDbVertex
100
AcDbPolygonMeshVertex
 10
159.099026
 20
-159.099026
 30
145.462338
 70
    64
  0
VERTEX
  5
6AF
100
AcDbEntity
  8
0
  6
CONTINUOUS
100
AcDbVertex
100
AcDbPolygonMeshVertex
 10
155.33004
 20
-155.33004
 30
140.00954
 70
    64
  0
VERTEX
  5
6B0
100
AcDbEntity
  8
0
  6
CONTINUOUS
100
AcDbVertex
100
AcDbPolygonMeshVertex
 10
159.099026
 20
-159.099026
 30
134.556743
 70
    64
  0
VERTEX
  5
6B1
100
AcDbEntity
  8
0
  6
CONTINUOUS
100
AcDbVertex
100
AcDbPolygonMeshVertex
 10
194.855716
 20
-112.5
 30
145.462338
 70
    64
  0
VERTEX
  5
6B2
100
AcDbEntity
  8
0
  6
CONTINUOUS
100
AcDbVertex
100
AcDbPolygonMeshVertex
 10
190.23967
 20
-109.834925
 30
140.00954
 70
    64
  0
VERTEX
  5
6B3
100
AcDbEntity
  8
0
  6
CONTINUOUS
100
AcDbVertex
100
AcDbPolygonMeshVertex
 10
194.855716
 20
-112.5
 30
134.556743
 70
    64
  0
VERTEX
  5
6B4
100
AcDbEntity
  8
0
  6
CONTINUOUS
100
AcDbVertex
100
AcDbPolygonMeshVertex
 10
217.333311
 20
-58.234285
 30
145.462338
 70
    64
  0
VERTEX
  5
6B5
100
AcDbEntity
  8
0
  6
CONTINUOUS
100
AcDbVertex
100
AcDbPolygonMeshVertex
 10
212.184781
 20
-56.854741
 30
140.00954
 70
    64
  0
VERTEX
  5
6B6
100
AcDbEntity
  8
0
  6
CONTINUOUS
100
AcDbVertex
100
AcDbPolygonMeshVertex
 10
217.333311
 20
-58.234285
 30
134.556743
 70
    64
  0
SEQEND
  5
6B7
100
AcDbEntity
  8
0
  6
CONTINUOUS
  0
POLYLINE
  5
6B8
100
AcDbEntity
  8
0
  6
CONTINUOUS
100
AcDbPolygonMesh
 66
     1
 10
0.0
 20
0.0
 30
0.0
 70
    17
 71
    24
 72
     3
  0
VERTEX
  5
6B9
100
AcDbEntity
  8
0
  6
CONTINUOUS
100
AcDbVertex
100
AcDbPolygonMeshVertex
 10
225.0
 20
0.0
 30
145.462338
 70
    64
  0
VERTEX
  5
6BA
100
AcDbEntity
  8
0
  6
CONTINUOUS
100
AcDbVertex
100
AcDbPolygonMeshVertex
 10
225.0
 20
0.0
 30
213.369703
 70
    64
  0
VERTEX
  5
6BB
100
AcDbEntity
  8
0
  6
CONTINUOUS
100
AcDbVertex
100
AcDbPolygonMeshVertex
 10
225.0
 20
0.0
 30
281.277068
 70
    64
  0
VERTEX
  5
6BC
100
AcDbEntity
  8
0
  6
CONTINUOUS
100
AcDbVertex
100
AcDbPolygonMeshVertex
 10
217.333311
 20
-58.234285
 30
145.462338
 70
    64
  0
VERTEX
  5
6BD
100
AcDbEntity
  8
0
  6
CONTINUOUS
100
AcDbVertex
100
AcDbPolygonMeshVertex
 10
217.333311
 20
-58.234285
 30
213.369703
 70
    64
  0
VERTEX
  5
6BE
100
AcDbEntity
  8
0
  6
CONTINUOUS
100
AcDbVertex
100
AcDbPolygonMeshVertex
 10
217.333311
 20
-58.234285
 30
281.277068
 70
    64
  0
VERTEX
  5
6BF
100
AcDbEntity
  8
0
  6
CONTINUOUS
100
AcDbVertex
100
AcDbPolygonMeshVertex
 10
194.855716
 20
-112.5
 30
145.462338
 70
    64
  0
VERTEX
  5
6C0
100
AcDbEntity
  8
0
  6
CONTINUOUS
100
AcDbVertex
100
AcDbPolygonMeshVertex
 10
194.855716
 20
-112.5
 30
213.369703
 70
    64
  0
VERTEX
  5
6C1
100
AcDbEntity
  8
0
  6
CONTINUOUS
100
AcDbVertex
100
AcDbPolygonMeshVertex
 10
194.855716
 20
-112.5
 30
281.277068
 70
    64
  0
VERTEX
  5
6C2
100
AcDbEntity
  8
0
  6
CONTINUOUS
100
AcDbVertex
100
AcDbPolygonMeshVertex
 10
159.099026
 20
-159.099026
 30
145.462338
 70
    64
  0
VERTEX
  5
6C3
100
AcDbEntity
  8
0
  6
CONTINUOUS
100
AcDbVertex
100
AcDbPolygonMeshVertex
 10
159.099026
 20
-159.099026
 30
213.369703
 70
    64
  0
VERTEX
  5
6C4
100
AcDbEntity
  8
0
  6
CONTINUOUS
100
AcDbVertex
100
AcDbPolygonMeshVertex
 10
159.099026
 20
-159.099026
 30
281.277068
 70
    64
  0
VERTEX
  5
6C5
100
AcDbEntity
  8
0
  6
CONTINUOUS
100
AcDbVertex
100
AcDbPolygonMeshVertex
 10
112.5
 20
-194.855716
 30
145.462338
 70
    64
  0
VERTEX
  5
6C6
100
AcDbEntity
  8
0
  6
CONTINUOUS
100
AcDbVertex
100
AcDbPolygonMeshVertex
 10
112.5
 20
-194.855716
 30
213.369703
 70
    64
  0
VERTEX
  5
6C7
100
AcDbEntity
  8
0
  6
CONTINUOUS
100
AcDbVertex
100
AcDbPolygonMeshVertex
 10
112.5
 20
-194.855716
 30
281.277068
 70
    64
  0
VERTEX
  5
6C8
100
AcDbEntity
  8
0
  6
CONTINUOUS
100
AcDbVertex
100
AcDbPolygonMeshVertex
 10
58.234285
 20
-217.333311
 30
145.462338
 70
    64
  0
VERTEX
  5
6C9
100
AcDbEntity
  8
0
  6
CONTINUOUS
100
AcDbVertex
100
AcDbPolygonMeshVertex
 10
58.234285
 20
-217.333311
 30
213.369703
 70
    64
  0
VERTEX
  5
6CA
100
AcDbEntity
  8
0
  6
CONTINUOUS
100
AcDbVertex
100
AcDbPolygonMeshVertex
 10
58.234285
 20
-217.333311
 30
281.277068
 70
    64
  0
VERTEX
  5
6CB
100
AcDbEntity
  8
0
  6
CONTINUOUS
100
AcDbVertex
100
AcDbPolygonMeshVertex
 10
0.0
 20
-225.0
 30
145.462338
 70
    64
  0
VERTEX
  5
6CC
100
AcDbEntity
  8
0
  6
CONTINUOUS
100
AcDbVertex
100
AcDbPolygonMeshVertex
 10
0.0
 20
-225.0
 30
213.369703
 70
    64
  0
VERTEX
  5
6CD
100
AcDbEntity
  8
0
  6
CONTINUOUS
100
AcDbVertex
100
AcDbPolygonMeshVertex
 10
0.0
 20
-225.0
 30
281.277068
 70
    64
  0
VERTEX
  5
6CE
100
AcDbEntity
  8
0
  6
CONTINUOUS
100
AcDbVertex
100
AcDbPolygonMeshVertex
 10
-58.234285
 20
-217.333311
 30
145.462338
 70
    64
  0
VERTEX
  5
6CF
100
AcDbEntity
  8
0
  6
CONTINUOUS
100
AcDbVertex
100
AcDbPolygonMeshVertex
 10
-58.234285
 20
-217.333311
 30
213.369703
 70
    64
  0
VERTEX
  5
6D0
100
AcDbEntity
  8
0
  6
CONTINUOUS
100
AcDbVertex
100
AcDbPolygonMeshVertex
 10
-58.234285
 20
-217.333311
 30
281.277068
 70
    64
  0
VERTEX
  5
6D1
100
AcDbEntity
  8
0
  6
CONTINUOUS
100
AcDbVertex
100
AcDbPolygonMeshVertex
 10
-112.5
 20
-194.855716
 30
145.462338
 70
    64
  0
VERTEX
  5
6D2
100
AcDbEntity
  8
0
  6
CONTINUOUS
100
AcDbVertex
100
AcDbPolygonMeshVertex
 10
-112.5
 20
-194.855716
 30
213.369703
 70
    64
  0
VERTEX
  5
6D3
100
AcDbEntity
  8
0
  6
CONTINUOUS
100
AcDbVertex
100
AcDbPolygonMeshVertex
 10
-112.5
 20
-194.855716
 30
281.277068
 70
    64
  0
VERTEX
  5
6D4
100
AcDbEntity
  8
0
  6
CONTINUOUS
100
AcDbVertex
100
AcDbPolygonMeshVertex
 10
-159.099026
 20
-159.099026
 30
145.462338
 70
    64
  0
VERTEX
  5
6D5
100
AcDbEntity
  8
0
  6
CONTINUOUS
100
AcDbVertex
100
AcDbPolygonMeshVertex
 10
-159.099026
 20
-159.099026
 30
213.369703
 70
    64
  0
VERTEX
  5
6D6
100
AcDbEntity
  8
0
  6
CONTINUOUS
100
AcDbVertex
100
AcDbPolygonMeshVertex
 10
-159.099026
 20
-159.099026
 30
281.277068
 70
    64
  0
VERTEX
  5
6D7
100
AcDbEntity
  8
0
  6
CONTINUOUS
100
AcDbVertex
100
AcDbPolygonMeshVertex
 10
-194.855716
 20
-112.5
 30
145.462338
 70
    64
  0
VERTEX
  5
6D8
100
AcDbEntity
  8
0
  6
CONTINUOUS
100
AcDbVertex
100
AcDbPolygonMeshVertex
 10
-194.855716
 20
-112.5
 30
213.369703
 70
    64
  0
VERTEX
  5
6D9
100
AcDbEntity
  8
0
  6
CONTINUOUS
100
AcDbVertex
100
AcDbPolygonMeshVertex
 10
-194.855716
 20
-112.5
 30
281.277068
 70
    64
  0
VERTEX
  5
6DA
100
AcDbEntity
  8
0
  6
CONTINUOUS
100
AcDbVertex
100
AcDbPolygonMeshVertex
 10
-217.333311
 20
-58.234285
 30
145.462338
 70
    64
  0
VERTEX
  5
6DB
100
AcDbEntity
  8
0
  6
CONTINUOUS
100
AcDbVertex
100
AcDbPolygonMeshVertex
 10
-217.333311
 20
-58.234285
 30
213.369703
 70
    64
  0
VERTEX
  5
6DC
100
AcDbEntity
  8
0
  6
CONTINUOUS
100
AcDbVertex
100
AcDbPolygonMeshVertex
 10
-217.333311
 20
-58.234285
 30
281.277068
 70
    64
  0
VERTEX
  5
6DD
100
AcDbEntity
  8
0
  6
CONTINUOUS
100
AcDbVertex
100
AcDbPolygonMeshVertex
 10
-225.0
 20
0.0
 30
145.462338
 70
    64
  0
VERTEX
  5
6DE
100
AcDbEntity
  8
0
  6
CONTINUOUS
100
AcDbVertex
100
AcDbPolygonMeshVertex
 10
-225.0
 20
0.0
 30
213.369703
 70
    64
  0
VERTEX
  5
6DF
100
AcDbEntity
  8
0
  6
CONTINUOUS
100
AcDbVertex
100
AcDbPolygonMeshVertex
 10
-225.0
 20
0.0
 30
281.277068
 70
    64
  0
VERTEX
  5
6E0
100
AcDbEntity
  8
0
  6
CONTINUOUS
100
AcDbVertex
100
AcDbPolygonMeshVertex
 10
-217.333311
 20
58.234285
 30
145.462338
 70
    64
  0
VERTEX
  5
6E1
100
AcDbEntity
  8
0
  6
CONTINUOUS
100
AcDbVertex
100
AcDbPolygonMeshVertex
 10
-217.333311
 20
58.234285
 30
213.369703
 70
    64
  0
VERTEX
  5
6E2
100
AcDbEntity
  8
0
  6
CONTINUOUS
100
AcDbVertex
100
AcDbPolygonMeshVertex
 10
-217.333311
 20
58.234285
 30
281.277068
 70
    64
  0
VERTEX
  5
6E3
100
AcDbEntity
  8
0
  6
CONTINUOUS
100
AcDbVertex
100
AcDbPolygonMeshVertex
 10
-194.855716
 20
112.5
 30
145.462338
 70
    64
  0
VERTEX
  5
6E4
100
AcDbEntity
  8
0
  6
CONTINUOUS
100
AcDbVertex
100
AcDbPolygonMeshVertex
 10
-194.855716
 20
112.5
 30
213.369703
 70
    64
  0
VERTEX
  5
6E5
100
AcDbEntity
  8
0
  6
CONTINUOUS
100
AcDbVertex
100
AcDbPolygonMeshVertex
 10
-194.855716
 20
112.5
 30
281.277068
 70
    64
  0
VERTEX
  5
6E6
100
AcDbEntity
  8
0
  6
CONTINUOUS
100
AcDbVertex
100
AcDbPolygonMeshVertex
 10
-159.099026
 20
159.099026
 30
145.462338
 70
    64
  0
VERTEX
  5
6E7
100
AcDbEntity
  8
0
  6
CONTINUOUS
100
AcDbVertex
100
AcDbPolygonMeshVertex
 10
-159.099026
 20
159.099026
 30
213.369703
 70
    64
  0
VERTEX
  5
6E8
100
AcDbEntity
  8
0
  6
CONTINUOUS
100
AcDbVertex
100
AcDbPolygonMeshVertex
 10
-159.099026
 20
159.099026
 30
281.277068
 70
    64
  0
VERTEX
  5
6E9
100
AcDbEntity
  8
0
  6
CONTINUOUS
100
AcDbVertex
100
AcDbPolygonMeshVertex
 10
-112.5
 20
194.855716
 30
145.462338
 70
    64
  0
VERTEX
  5
6EA
100
AcDbEntity
  8
0
  6
CONTINUOUS
100
AcDbVertex
100
AcDbPolygonMeshVertex
 10
-112.5
 20
194.855716
 30
213.369703
 70
    64
  0
VERTEX
  5
6EB
100
AcDbEntity
  8
0
  6
CONTINUOUS
100
AcDbVertex
100
AcDbPolygonMeshVertex
 10
-112.5
 20
194.855716
 30
281.277068
 70
    64
  0
VERTEX
  5
6EC
100
AcDbEntity
  8
0
  6
CONTINUOUS
100
AcDbVertex
100
AcDbPolygonMeshVertex
 10
-58.234285
 20
217.333311
 30
145.462338
 70
    64
  0
VERTEX
  5
6ED
100
AcDbEntity
  8
0
  6
CONTINUOUS
100
AcDbVertex
100
AcDbPolygonMeshVertex
 10
-58.234285
 20
217.333311
 30
213.369703
 70
    64
  0
VERTEX
  5
6EE
100
AcDbEntity
  8
0
  6
CONTINUOUS
100
AcDbVertex
100
AcDbPolygonMeshVertex
 10
-58.234285
 20
217.333311
 30
281.277068
 70
    64
  0
VERTEX
  5
6EF
100
AcDbEntity
  8
0
  6
CONTINUOUS
100
AcDbVertex
100
AcDbPolygonMeshVertex
 10
0.0
 20
225.0
 30
145.462338
 70
    64
  0
VERTEX
  5
6F0
100
AcDbEntity
  8
0
  6
CONTINUOUS
100
AcDbVertex
100
AcDbPolygonMeshVertex
 10
0.0
 20
225.0
 30
213.369703
 70
    64
  0
VERTEX
  5
6F1
100
AcDbEntity
  8
0
  6
CONTINUOUS
100
AcDbVertex
100
AcDbPolygonMeshVertex
 10
0.0
 20
225.0
 30
281.277068
 70
    64
  0
VERTEX
  5
6F2
100
AcDbEntity
  8
0
  6
CONTINUOUS
100
AcDbVertex
100
AcDbPolygonMeshVertex
 10
58.234285
 20
217.333311
 30
145.462338
 70
    64
  0
VERTEX
  5
6F3
100
AcDbEntity
  8
0
  6
CONTINUOUS
100
AcDbVertex
100
AcDbPolygonMeshVertex
 10
58.234285
 20
217.333311
 30
213.369703
 70
    64
  0
VERTEX
  5
6F4
100
AcDbEntity
  8
0
  6
CONTINUOUS
100
AcDbVertex
100
AcDbPolygonMeshVertex
 10
58.234285
 20
217.333311
 30
281.277068
 70
    64
  0
VERTEX
  5
6F5
100
AcDbEntity
  8
0
  6
CONTINUOUS
100
AcDbVertex
100
AcDbPolygonMeshVertex
 10
112.5
 20
194.855716
 30
145.462338
 70
    64
  0
VERTEX
  5
6F6
100
AcDbEntity
  8
0
  6
CONTINUOUS
100
AcDbVertex
100
AcDbPolygonMeshVertex
 10
112.5
 20
194.855716
 30
213.369703
 70
    64
  0
VERTEX
  5
6F7
100
AcDbEntity
  8
0
  6
CONTINUOUS
100
AcDbVertex
100
AcDbPolygonMeshVertex
 10
112.5
 20
194.855716
 30
281.277068
 70
    64
  0
VERTEX
  5
6F8
100
AcDbEntity
  8
0
  6
CONTINUOUS
100
AcDbVertex
100
AcDbPolygonMeshVertex
 10
159.099026
 20
159.099026
 30
145.462338
 70
    64
  0
VERTEX
  5
6F9
100
AcDbEntity
  8
0
  6
CONTINUOUS
100
AcDbVertex
100
AcDbPolygonMeshVertex
 10
159.099026
 20
159.099026
 30
213.369703
 70
    64
  0
VERTEX
  5
6FA
100
AcDbEntity
  8
0
  6
CONTINUOUS
100
AcDbVertex
100
AcDbPolygonMeshVertex
 10
159.099026
 20
159.099026
 30
281.277068
 70
    64
  0
VERTEX
  5
6FB
100
AcDbEntity
  8
0
  6
CONTINUOUS
100
AcDbVertex
100
AcDbPolygonMeshVertex
 10
194.855716
 20
112.5
 30
145.462338
 70
    64
  0
VERTEX
  5
6FC
100
AcDbEntity
  8
0
  6
CONTINUOUS
100
AcDbVertex
100
AcDbPolygonMeshVertex
 10
194.855716
 20
112.5
 30
213.369703
 70
    64
  0
VERTEX
  5
6FD
100
AcDbEntity
  8
0
  6
CONTINUOUS
100
AcDbVertex
100
AcDbPolygonMeshVertex
 10
194.855716
 20
112.5
 30
281.277068
 70
    64
  0
VERTEX
  5
6FE
100
AcDbEntity
  8
0
  6
CONTINUOUS
100
AcDbVertex
100
AcDbPolygonMeshVertex
 10
217.333311
 20
58.234285
 30
145.462338
 70
    64
  0
VERTEX
  5
6FF
100
AcDbEntity
  8
0
  6
CONTINUOUS
100
AcDbVertex
100
AcDbPolygonMeshVertex
 10
217.333311
 20
58.234285
 30
213.369703
 70
    64
  0
VERTEX
  5
700
100
AcDbEntity
  8
0
  6
CONTINUOUS
100
AcDbVertex
100
AcDbPolygonMeshVertex
 10
217.333311
 20
58.234285
 30
281.277068
 70
    64
  0
SEQEND
  5
701
100
AcDbEntity
  8
0
  6
CONTINUOUS
  0
ENDSEC
  0
SECTION
  2
OBJECTS
  0
DICTIONARY
  5
1A
100
AcDbDictionary
  3
ACAD_GROUP
350
18
  3
ACAD_MLINESTYLE
350
19
  0
DICTIONARY
  5
18
102
{ACAD_REACTORS
330
1A
102
}
100
AcDbDictionary
  0
DICTIONARY
  5
19
102
{ACAD_REACTORS
330
1A
102
}
100
AcDbDictionary
  3
STANDARD
350
1D
  0
MLINESTYLE
  5
1D
102
{ACAD_REACTORS
330
19
102
}
100
AcDbMlineStyle
  2
STANDARD
 70
     0
  3

 62
   256
 51
90.0
 52
90.0
 71
     2
 49
0.5
 62
   256
  6
BYLAYER
 49
-0.5
 62
   256
  6
BYLAYER
  0
ENDSEC
  0
EOF
