  0
SECTION
  2
HEADER
  9
$ACADVER
  1
AC1014
  9
$ACADMAINTVER
 70
     0
  9
$DWGCODEPAGE
  3
ANSI_1250
  9
$INSBASE
 10
0.0
 20
0.0
 30
0.0
  9
$EXTMIN
 10
0.0
 20
-122.5
 30
-122.5
  9
$EXTMAX
 10
175.0
 20
122.5
 30
122.5
  9
$LIMMIN
 10
0.0
 20
0.0
  9
$LIMMAX
 10
420.0
 20
297.0
  9
$ORTHOMODE
 70
     0
  9
$REGENMODE
 70
     1
  9
$FILLMODE
 70
     0
  9
$QTEXTMODE
 70
     0
  9
$MIRRTEXT
 70
     1
  9
$DRAGMODE
 70
     2
  9
$LTSCALE
 40
1.0
  9
$OSMODE
 70
    47
  9
$ATTMODE
 70
     1
  9
$TEXTSIZE
 40
50.0
  9
$TRACEWID
 40
1.0
  9
$TEXTSTYLE
  7
ROMANS
  9
$CLAYER
  8
VZ1
  9
$CELTYPE
  6
CONTINUOUS
  9
$CECOLOR
 62
   256
  9
$CELTSCALE
 40
1.0
  9
$DELOBJ
 70
     1
  9
$DISPSILH
 70
     0
  9
$DIMSCALE
 40
1.0
  9
$DIMASZ
 40
2.0
  9
$DIMEXO
 40
0.625
  9
$DIMDLI
 40
3.75
  9
$DIMRND
 40
1.0
  9
$DIMDLE
 40
0.0
  9
$DIMEXE
 40
1.0
  9
$DIMTP
 40
0.0
  9
$DIMTM
 40
0.0
  9
$DIMTXT
 40
2.5
  9
$DIMCEN
 40
-100.0
  9
$DIMTSZ
 40
0.0
  9
$DIMTOL
 70
     0
  9
$DIMLIM
 70
     0
  9
$DIMTIH
 70
     0
  9
$DIMTOH
 70
     0
  9
$DIMSE1
 70
     0
  9
$DIMSE2
 70
     0
  9
$DIMTAD
 70
     1
  9
$DIMZIN
 70
     8
  9
$DIMBLK
  1

  9
$DIMASO
 70
     1
  9
$DIMSHO
 70
     1
  9
$DIMPOST
  1

  9
$DIMAPOST
  1

  9
$DIMALT
 70
     0
  9
$DIMALTD
 70
     4
  9
$DIMALTF
 40
0.0394
  9
$DIMLFAC
 40
1.0
  9
$DIMTOFL
 70
     1
  9
$DIMTVP
 40
2.0
  9
$DIMTIX
 70
     0
  9
$DIMSOXD
 70
     0
  9
$DIMSAH
 70
     1
  9
$DIMBLK1
  1
_OBLIQUE
  9
$DIMBLK2
  1
_OBLIQUE
  9
$DIMSTYLE
  2
STANEK
  9
$DIMCLRD
 70
     1
  9
$DIMCLRE
 70
     1
  9
$DIMCLRT
 70
     1
  9
$DIMTFAC
 40
2.2
  9
$DIMGAP
 40
0.625
  9
$DIMJUST
 70
     0
  9
$DIMSD1
 70
     0
  9
$DIMSD2
 70
     0
  9
$DIMTOLJ
 70
     1
  9
$DIMTZIN
 70
     8
  9
$DIMALTZ
 70
     8
  9
$DIMALTTZ
 70
     8
  9
$DIMFIT
 70
     5
  9
$DIMUPT
 70
     0
  9
$DIMUNIT
 70
     2
  9
$DIMDEC
 70
     4
  9
$DIMTDEC
 70
     4
  9
$DIMALTU
 70
     2
  9
$DIMALTTD
 70
     4
  9
$DIMTXSTY
  7
ROMANS
  9
$DIMAUNIT
 70
     0
  9
$LUNITS
 70
     2
  9
$LUPREC
 70
     4
  9
$SKETCHINC
 40
1.0
  9
$FILLETRAD
 40
10.0
  9
$AUNITS
 70
     0
  9
$AUPREC
 70
     0
  9
$MENU
  1
.
  9
$ELEVATION
 40
0.0
  9
$PELEVATION
 40
0.0
  9
$THICKNESS
 40
0.0
  9
$LIMCHECK
 70
     0
  9
$BLIPMODE
 70
     0
  9
$CHAMFERA
 40
10.0
  9
$CHAMFERB
 40
10.0
  9
$CHAMFERC
 40
0.0
  9
$CHAMFERD
 40
0.0
  9
$SKPOLY
 70
     0
  9
$TDCREATE
 40
2450990.465911806
  9
$TDUPDATE
 40
2452953.850354629
  9
$TDINDWG
 40
0.3115446759
  9
$TDUSRTIMER
 40
0.3115446759
  9
$USRTIMER
 70
     1
  9
$ANGBASE
 50
0.0
  9
$ANGDIR
 70
     0
  9
$PDMODE
 70
     3
  9
$PDSIZE
 40
0.0
  9
$PLINEWID
 40
0.0
  9
$COORDS
 70
     1
  9
$SPLFRAME
 70
     0
  9
$SPLINETYPE
 70
     6
  9
$SPLINESEGS
 70
     8
  9
$ATTDIA
 70
     0
  9
$ATTREQ
 70
     1
  9
$HANDLING
 70
     1
  9
$HANDSEED
  5
240
  9
$SURFTAB1
 70
    12
  9
$SURFTAB2
 70
     6
  9
$SURFTYPE
 70
     6
  9
$SURFU
 70
     6
  9
$SURFV
 70
     6
  9
$UCSNAME
  2

  9
$UCSORG
 10
0.0
 20
0.0
 30
0.0
  9
$UCSXDIR
 10
1.0
 20
0.0
 30
0.0
  9
$UCSYDIR
 10
0.0
 20
1.0
 30
0.0
  9
$PUCSNAME
  2

  9
$PUCSORG
 10
0.0
 20
0.0
 30
0.0
  9
$PUCSXDIR
 10
1.0
 20
0.0
 30
0.0
  9
$PUCSYDIR
 10
0.0
 20
1.0
 30
0.0
  9
$USERI1
 70
     1
  9
$USERI2
 70
     7
  9
$USERI3
 70
     2
  9
$USERI4
 70
     2
  9
$USERI5
 70
     6
  9
$USERR1
 40
281.0
  9
$USERR2
 40
321.0
  9
$USERR3
 40
0.0
  9
$USERR4
 40
0.0
  9
$USERR5
 40
0.0
  9
$WORLDVIEW
 70
     1
  9
$SHADEDGE
 70
     3
  9
$SHADEDIF
 70
    70
  9
$TILEMODE
 70
     1
  9
$MAXACTVP
 70
    48
  9
$PINSBASE
 10
0.0
 20
0.0
 30
0.0
  9
$PLIMCHECK
 70
     0
  9
$PEXTMIN
 10
1.000000E+20
 20
1.000000E+20
 30
1.000000E+20
  9
$PEXTMAX
 10
-1.000000E+20
 20
-1.000000E+20
 30
-1.000000E+20
  9
$PLIMMIN
 10
0.0
 20
0.0
  9
$PLIMMAX
 10
420.0
 20
297.0
  9
$UNITMODE
 70
     0
  9
$VISRETAIN
 70
     1
  9
$PLINEGEN
 70
     0
  9
$PSLTSCALE
 70
     1
  9
$TREEDEPTH
 70
  3020
  9
$PICKSTYLE
 70
     1
  9
$CMLSTYLE
  2
STANDARD
  9
$CMLJUST
 70
     0
  9
$CMLSCALE
 40
1.0
  9
$PROXYGRAPHICS
 70
     1
  9
$MEASUREMENT
 70
     0
  0
ENDSEC
  0
SECTION
  2
CLASSES
  0
CLASS
  1
DICTIONARYVAR
  2
AcDbDictionaryVar
  3
"AutoCAD"
 90
        0
280
     0
281
     0
  0
ENDSEC
  0
SECTION
  2
TABLES
  0
TABLE
  2
VPORT
  5
12
100
AcDbSymbolTable
 70
     2
  0
VPORT
  5
23F
100
AcDbSymbolTableRecord
100
AcDbViewportTableRecord
  2
*ACTIVE
 70
     0
 10
0.0
 20
0.0
 11
1.0
 21
1.0
 12
95.249529
 22
8.211457
 13
0.0
 23
0.0
 14
10.0
 24
10.0
 15
10.0
 25
10.0
 16
-1.460931
 26
-4.168734
 36
1.182686
 17
0.0
 27
0.0
 37
0.0
 40
331.925854
 41
1.525194
 42
50.0
 43
0.0
 44
0.0
 50
0.0
 51
0.0
 71
     0
 72
   100
 73
     1
 74
     1
 75
     0
 76
     0
 77
     0
 78
     0
  0
ENDTAB
  0
TABLE
  2
LTYPE
  5
D
100
AcDbSymbolTable
 70
     1
  0
LTYPE
  5
E
100
AcDbSymbolTableRecord
100
AcDbLinetypeTableRecord
  2
BYBLOCK
 70
     0
  3

 72
    65
 73
     0
 40
0.0
  0
LTYPE
  5
F
100
AcDbSymbolTableRecord
100
AcDbLinetypeTableRecord
  2
BYLAYER
 70
     0
  3

 72
    65
 73
     0
 40
0.0
  0
LTYPE
  5
5
100
AcDbSymbolTableRecord
100
AcDbLinetypeTableRecord
  2
CONTINUOUS
 70
     0
  3
Solid line
 72
    65
 73
     0
 40
0.0
  0
ENDTAB
  0
TABLE
  2
LAYER
  5
A
100
AcDbSymbolTable
 70
     3
  0
LAYER
  5
4
100
AcDbSymbolTableRecord
100
AcDbLayerTableRecord
  2
0
 70
     0
 62
     7
  6
CONTINUOUS
  0
LAYER
  5
1B
100
AcDbSymbolTableRecord
100
AcDbLayerTableRecord
  2
VZ1
 70
     0
 62
     7
  6
CONTINUOUS
  0
LAYER
  5
131
100
AcDbSymbolTableRecord
100
AcDbLayerTableRecord
  2
DEFPOINTS
 70
     0
 62
     7
  6
CONTINUOUS
  0
ENDTAB
  0
TABLE
  2
STYLE
  5
B
100
AcDbSymbolTable
 70
     2
  0
STYLE
  5
C
100
AcDbSymbolTableRecord
100
AcDbTextStyleTableRecord
  2
STANDARD
 70
     0
 40
0.0
 41
0.8
 50
0.0
 71
     0
 42
2.5
  3
txt.shx
  4

  0
STYLE
  5
1C
100
AcDbSymbolTableRecord
100
AcDbTextStyleTableRecord
  2
ROMANS
 70
     0
 40
50.0
 41
0.8
 50
0.0
 71
     0
 42
50.0
  3
romans.shx
  4

  0
ENDTAB
  0
TABLE
  2
VIEW
  5
10
100
AcDbSymbolTable
 70
     0
  0
ENDTAB
  0
TABLE
  2
UCS
  5
11
100
AcDbSymbolTable
 70
     0
  0
ENDTAB
  0
TABLE
  2
APPID
  5
14
100
AcDbSymbolTable
 70
     1
  0
APPID
  5
15
100
AcDbSymbolTableRecord
100
AcDbRegAppTableRecord
  2
ACAD
 70
     0
  0
ENDTAB
  0
TABLE
  2
DIMSTYLE
  5
16
100
AcDbSymbolTable
 70
     1
  0
DIMSTYLE
105
1E
100
AcDbSymbolTableRecord
100
AcDbDimStyleTableRecord
  2
STANEK
 70
     0
  3

  4

  5

  6
_OBLIQUE
  7
_OBLIQUE
 40
0.0
 41
2.0
 42
0.625
 43
3.75
 44
1.0
 45
1.0
 46
0.0
 47
0.0
 48
0.0
140
2.2
141
-100.0
142
0.0
143
0.0394
144
2.2
145
2.0
146
2.2
147
0.625
 71
     0
 72
     0
 73
     0
 74
     0
 75
     0
 76
     0
 77
     1
 78
     8
170
     0
171
     4
172
     1
173
     1
174
     0
175
     0
176
     1
177
     1
178
     1
270
     2
271
     4
272
     4
273
     2
274
     4
340
1C
275
     0
280
     0
281
     0
282
     0
283
     1
284
     8
285
     8
286
     8
287
     5
288
     0
  0
ENDTAB
  0
TABLE
  2
BLOCK_RECORD
  5
1
100
AcDbSymbolTable
 70
     4
  0
BLOCK_RECORD
  5
2
100
AcDbSymbolTableRecord
100
AcDbBlockTableRecord
  2
*MODEL_SPACE
  0
BLOCK_RECORD
  5
7
100
AcDbSymbolTableRecord
100
AcDbBlockTableRecord
  2
*PAPER_SPACE
  0
BLOCK_RECORD
  5
1F
100
AcDbSymbolTableRecord
100
AcDbBlockTableRecord
  2
_OBLIQUE
  0
BLOCK_RECORD
  5
18D
100
AcDbSymbolTableRecord
100
AcDbBlockTableRecord
  2
RM-125L_3D
  0
BLOCK_RECORD
  5
23A
100
AcDbSymbolTableRecord
100
AcDbBlockTableRecord
  2
A
  0
ENDTAB
  0
ENDSEC
  0
SECTION
  2
BLOCKS
  0
BLOCK
  5
3
100
AcDbEntity
  8
0
 62
     1
100
AcDbBlockBegin
  2
*MODEL_SPACE
 70
     0
 10
0.0
 20
0.0
 30
0.0
  3
*MODEL_SPACE
  1

  0
ENDBLK
  5
6
100
AcDbEntity
  8
0
 62
     1
100
AcDbBlockEnd
  0
BLOCK
  5
8
100
AcDbEntity
 67
     1
  8
0
 62
     1
100
AcDbBlockBegin
  2
*PAPER_SPACE
 70
     0
 10
0.0
 20
0.0
 30
0.0
  3
*PAPER_SPACE
  1

  0
ENDBLK
  5
9
100
AcDbEntity
 67
     1
  8
0
 62
     1
100
AcDbBlockEnd
  0
BLOCK
  5
21
100
AcDbEntity
  8
0
100
AcDbBlockBegin
  2
_OBLIQUE
 70
     0
 10
0.0
 20
0.0
 30
0.0
  3
_OBLIQUE
  1

  0
LINE
  5
20
100
AcDbEntity
  8
0
  6
BYBLOCK
 62
     0
100
AcDbLine
 10
-0.5
 20
-0.5
 30
0.0
 11
0.5
 21
0.5
 31
0.0
  0
ENDBLK
  5
22
100
AcDbEntity
  8
0
100
AcDbBlockEnd
  0
BLOCK
  5
18E
100
AcDbEntity
  8
0
100
AcDbBlockBegin
  2
RM-125L_3D
 70
     0
 10
0.0
 20
0.0
 30
0.0
  3
RM-125L_3D
  1

  0
POLYLINE
  5
1E0
100
AcDbEntity
  8
VZ1
  6
CONTINUOUS
100
AcDbPolygonMesh
 66
     1
 10
0.0
 20
0.0
 30
0.0
 70
    48
 71
     2
 72
    16
  0
VERTEX
  5
1E1
100
AcDbEntity
  8
VZ1
  6
CONTINUOUS
100
AcDbVertex
100
AcDbPolygonMeshVertex
 10
90.0
 20
122.5
 30
0.0
 70
    64
  0
VERTEX
  5
1E2
100
AcDbEntity
  8
VZ1
  6
CONTINUOUS
100
AcDbVertex
100
AcDbPolygonMeshVertex
 10
90.0
 20
113.175243
 30
46.87872
 70
    64
  0
VERTEX
  5
1E3
100
AcDbEntity
  8
VZ1
  6
CONTINUOUS
100
AcDbVertex
100
AcDbPolygonMeshVertex
 10
90.0
 20
86.620581
 30
86.620581
 70
    64
  0
VERTEX
  5
1E4
100
AcDbEntity
  8
VZ1
  6
CONTINUOUS
100
AcDbVertex
100
AcDbPolygonMeshVertex
 10
90.0
 20
46.87872
 30
113.175243
 70
    64
  0
VERTEX
  5
1E5
100
AcDbEntity
  8
VZ1
  6
CONTINUOUS
100
AcDbVertex
100
AcDbPolygonMeshVertex
 10
90.0
 20
0.0
 30
122.5
 70
    64
  0
VERTEX
  5
1E6
100
AcDbEntity
  8
VZ1
  6
CONTINUOUS
100
AcDbVertex
100
AcDbPolygonMeshVertex
 10
90.0
 20
-46.87872
 30
113.175243
 70
    64
  0
VERTEX
  5
1E7
100
AcDbEntity
  8
VZ1
  6
CONTINUOUS
100
AcDbVertex
100
AcDbPolygonMeshVertex
 10
90.0
 20
-86.620581
 30
86.620581
 70
    64
  0
VERTEX
  5
1E8
100
AcDbEntity
  8
VZ1
  6
CONTINUOUS
100
AcDbVertex
100
AcDbPolygonMeshVertex
 10
90.0
 20
-113.175243
 30
46.87872
 70
    64
  0
VERTEX
  5
1E9
100
AcDbEntity
  8
VZ1
  6
CONTINUOUS
100
AcDbVertex
100
AcDbPolygonMeshVertex
 10
90.0
 20
-122.5
 30
0.0
 70
    64
  0
VERTEX
  5
1EA
100
AcDbEntity
  8
VZ1
  6
CONTINUOUS
100
AcDbVertex
100
AcDbPolygonMeshVertex
 10
90.0
 20
-113.175243
 30
-46.87872
 70
    64
  0
VERTEX
  5
1EB
100
AcDbEntity
  8
VZ1
  6
CONTINUOUS
100
AcDbVertex
100
AcDbPolygonMeshVertex
 10
90.0
 20
-86.620581
 30
-86.620581
 70
    64
  0
VERTEX
  5
1EC
100
AcDbEntity
  8
VZ1
  6
CONTINUOUS
100
AcDbVertex
100
AcDbPolygonMeshVertex
 10
90.0
 20
-46.87872
 30
-113.175243
 70
    64
  0
VERTEX
  5
1ED
100
AcDbEntity
  8
VZ1
  6
CONTINUOUS
100
AcDbVertex
100
AcDbPolygonMeshVertex
 10
90.0
 20
0.0
 30
-122.5
 70
    64
  0
VERTEX
  5
1EE
100
AcDbEntity
  8
VZ1
  6
CONTINUOUS
100
AcDbVertex
100
AcDbPolygonMeshVertex
 10
90.0
 20
46.87872
 30
-113.175243
 70
    64
  0
VERTEX
  5
1EF
100
AcDbEntity
  8
VZ1
  6
CONTINUOUS
100
AcDbVertex
100
AcDbPolygonMeshVertex
 10
90.0
 20
86.620581
 30
-86.620581
 70
    64
  0
VERTEX
  5
1F0
100
AcDbEntity
  8
VZ1
  6
CONTINUOUS
100
AcDbVertex
100
AcDbPolygonMeshVertex
 10
90.0
 20
113.175243
 30
-46.87872
 70
    64
  0
VERTEX
  5
1F1
100
AcDbEntity
  8
VZ1
  6
CONTINUOUS
100
AcDbVertex
100
AcDbPolygonMeshVertex
 10
150.0
 20
62.5
 30
0.0
 70
    64
  0
VERTEX
  5
1F2
100
AcDbEntity
  8
VZ1
  6
CONTINUOUS
100
AcDbVertex
100
AcDbPolygonMeshVertex
 10
150.0
 20
57.742471
 30
23.917715
 70
    64
  0
VERTEX
  5
1F3
100
AcDbEntity
  8
VZ1
  6
CONTINUOUS
100
AcDbVertex
100
AcDbPolygonMeshVertex
 10
150.0
 20
44.194174
 30
44.194174
 70
    64
  0
VERTEX
  5
1F4
100
AcDbEntity
  8
VZ1
  6
CONTINUOUS
100
AcDbVertex
100
AcDbPolygonMeshVertex
 10
150.0
 20
23.917715
 30
57.742471
 70
    64
  0
VERTEX
  5
1F5
100
AcDbEntity
  8
VZ1
  6
CONTINUOUS
100
AcDbVertex
100
AcDbPolygonMeshVertex
 10
150.0
 20
0.0
 30
62.5
 70
    64
  0
VERTEX
  5
1F6
100
AcDbEntity
  8
VZ1
  6
CONTINUOUS
100
AcDbVertex
100
AcDbPolygonMeshVertex
 10
150.0
 20
-23.917715
 30
57.742471
 70
    64
  0
VERTEX
  5
1F7
100
AcDbEntity
  8
VZ1
  6
CONTINUOUS
100
AcDbVertex
100
AcDbPolygonMeshVertex
 10
150.0
 20
-44.194174
 30
44.194174
 70
    64
  0
VERTEX
  5
1F8
100
AcDbEntity
  8
VZ1
  6
CONTINUOUS
100
AcDbVertex
100
AcDbPolygonMeshVertex
 10
150.0
 20
-57.742471
 30
23.917715
 70
    64
  0
VERTEX
  5
1F9
100
AcDbEntity
  8
VZ1
  6
CONTINUOUS
100
AcDbVertex
100
AcDbPolygonMeshVertex
 10
150.0
 20
-62.5
 30
0.0
 70
    64
  0
VERTEX
  5
1FA
100
AcDbEntity
  8
VZ1
  6
CONTINUOUS
100
AcDbVertex
100
AcDbPolygonMeshVertex
 10
150.0
 20
-57.742471
 30
-23.917715
 70
    64
  0
VERTEX
  5
1FB
100
AcDbEntity
  8
VZ1
  6
CONTINUOUS
100
AcDbVertex
100
AcDbPolygonMeshVertex
 10
150.0
 20
-44.194174
 30
-44.194174
 70
    64
  0
VERTEX
  5
1FC
100
AcDbEntity
  8
VZ1
  6
CONTINUOUS
100
AcDbVertex
100
AcDbPolygonMeshVertex
 10
150.0
 20
-23.917715
 30
-57.742471
 70
    64
  0
VERTEX
  5
1FD
100
AcDbEntity
  8
VZ1
  6
CONTINUOUS
100
AcDbVertex
100
AcDbPolygonMeshVertex
 10
150.0
 20
0.0
 30
-62.5
 70
    64
  0
VERTEX
  5
1FE
100
AcDbEntity
  8
VZ1
  6
CONTINUOUS
100
AcDbVertex
100
AcDbPolygonMeshVertex
 10
150.0
 20
23.917715
 30
-57.742471
 70
    64
  0
VERTEX
  5
1FF
100
AcDbEntity
  8
VZ1
  6
CONTINUOUS
100
AcDbVertex
100
AcDbPolygonMeshVertex
 10
150.0
 20
44.194174
 30
-44.194174
 70
    64
  0
VERTEX
  5
200
100
AcDbEntity
  8
VZ1
  6
CONTINUOUS
100
AcDbVertex
100
AcDbPolygonMeshVertex
 10
150.0
 20
57.742471
 30
-23.917715
 70
    64
  0
SEQEND
  5
201
100
AcDbEntity
  8
VZ1
  6
CONTINUOUS
  0
POLYLINE
  5
202
100
AcDbEntity
  8
VZ1
  6
CONTINUOUS
100
AcDbPolygonMesh
 66
     1
 10
0.0
 20
0.0
 30
0.0
 70
    48
 71
     2
 72
    16
  0
VERTEX
  5
203
100
AcDbEntity
  8
VZ1
  6
CONTINUOUS
100
AcDbVertex
100
AcDbPolygonMeshVertex
 10
20.0
 20
62.5
 30
0.0
 70
    64
  0
VERTEX
  5
204
100
AcDbEntity
  8
VZ1
  6
CONTINUOUS
100
AcDbVertex
100
AcDbPolygonMeshVertex
 10
20.0
 20
57.742471
 30
23.917715
 70
    64
  0
VERTEX
  5
205
100
AcDbEntity
  8
VZ1
  6
CONTINUOUS
100
AcDbVertex
100
AcDbPolygonMeshVertex
 10
20.0
 20
44.194174
 30
44.194174
 70
    64
  0
VERTEX
  5
206
100
AcDbEntity
  8
VZ1
  6
CONTINUOUS
100
AcDbVertex
100
AcDbPolygonMeshVertex
 10
20.0
 20
23.917715
 30
57.742471
 70
    64
  0
VERTEX
  5
207
100
AcDbEntity
  8
VZ1
  6
CONTINUOUS
100
AcDbVertex
100
AcDbPolygonMeshVertex
 10
20.0
 20
0.0
 30
62.5
 70
    64
  0
VERTEX
  5
208
100
AcDbEntity
  8
VZ1
  6
CONTINUOUS
100
AcDbVertex
100
AcDbPolygonMeshVertex
 10
20.0
 20
-23.917715
 30
57.742471
 70
    64
  0
VERTEX
  5
209
100
AcDbEntity
  8
VZ1
  6
CONTINUOUS
100
AcDbVertex
100
AcDbPolygonMeshVertex
 10
20.0
 20
-44.194174
 30
44.194174
 70
    64
  0
VERTEX
  5
20A
100
AcDbEntity
  8
VZ1
  6
CONTINUOUS
100
AcDbVertex
100
AcDbPolygonMeshVertex
 10
20.0
 20
-57.742471
 30
23.917715
 70
    64
  0
VERTEX
  5
20B
100
AcDbEntity
  8
VZ1
  6
CONTINUOUS
100
AcDbVertex
100
AcDbPolygonMeshVertex
 10
20.0
 20
-62.5
 30
0.0
 70
    64
  0
VERTEX
  5
20C
100
AcDbEntity
  8
VZ1
  6
CONTINUOUS
100
AcDbVertex
100
AcDbPolygonMeshVertex
 10
20.0
 20
-57.742471
 30
-23.917715
 70
    64
  0
VERTEX
  5
20D
100
AcDbEntity
  8
VZ1
  6
CONTINUOUS
100
AcDbVertex
100
AcDbPolygonMeshVertex
 10
20.0
 20
-44.194174
 30
-44.194174
 70
    64
  0
VERTEX
  5
20E
100
AcDbEntity
  8
VZ1
  6
CONTINUOUS
100
AcDbVertex
100
AcDbPolygonMeshVertex
 10
20.0
 20
-23.917715
 30
-57.742471
 70
    64
  0
VERTEX
  5
20F
100
AcDbEntity
  8
VZ1
  6
CONTINUOUS
100
AcDbVertex
100
AcDbPolygonMeshVertex
 10
20.0
 20
0.0
 30
-62.5
 70
    64
  0
VERTEX
  5
210
100
AcDbEntity
  8
VZ1
  6
CONTINUOUS
100
AcDbVertex
100
AcDbPolygonMeshVertex
 10
20.0
 20
23.917715
 30
-57.742471
 70
    64
  0
VERTEX
  5
211
100
AcDbEntity
  8
VZ1
  6
CONTINUOUS
100
AcDbVertex
100
AcDbPolygonMeshVertex
 10
20.0
 20
44.194174
 30
-44.194174
 70
    64
  0
VERTEX
  5
212
100
AcDbEntity
  8
VZ1
  6
CONTINUOUS
100
AcDbVertex
100
AcDbPolygonMeshVertex
 10
20.0
 20
57.742471
 30
-23.917715
 70
    64
  0
VERTEX
  5
213
100
AcDbEntity
  8
VZ1
  6
CONTINUOUS
100
AcDbVertex
100
AcDbPolygonMeshVertex
 10
50.0
 20
122.5
 30
0.0
 70
    64
  0
VERTEX
  5
214
100
AcDbEntity
  8
VZ1
  6
CONTINUOUS
100
AcDbVertex
100
AcDbPolygonMeshVertex
 10
50.0
 20
113.175243
 30
46.87872
 70
    64
  0
VERTEX
  5
215
100
AcDbEntity
  8
VZ1
  6
CONTINUOUS
100
AcDbVertex
100
AcDbPolygonMeshVertex
 10
50.0
 20
86.620581
 30
86.620581
 70
    64
  0
VERTEX
  5
216
100
AcDbEntity
  8
VZ1
  6
CONTINUOUS
100
AcDbVertex
100
AcDbPolygonMeshVertex
 10
50.0
 20
46.87872
 30
113.175243
 70
    64
  0
VERTEX
  5
217
100
AcDbEntity
  8
VZ1
  6
CONTINUOUS
100
AcDbVertex
100
AcDbPolygonMeshVertex
 10
50.0
 20
0.0
 30
122.5
 70
    64
  0
VERTEX
  5
218
100
AcDbEntity
  8
VZ1
  6
CONTINUOUS
100
AcDbVertex
100
AcDbPolygonMeshVertex
 10
50.0
 20
-46.87872
 30
113.175243
 70
    64
  0
VERTEX
  5
219
100
AcDbEntity
  8
VZ1
  6
CONTINUOUS
100
AcDbVertex
100
AcDbPolygonMeshVertex
 10
50.0
 20
-86.620581
 30
86.620581
 70
    64
  0
VERTEX
  5
21A
100
AcDbEntity
  8
VZ1
  6
CONTINUOUS
100
AcDbVertex
100
AcDbPolygonMeshVertex
 10
50.0
 20
-113.175243
 30
46.87872
 70
    64
  0
VERTEX
  5
21B
100
AcDbEntity
  8
VZ1
  6
CONTINUOUS
100
AcDbVertex
100
AcDbPolygonMeshVertex
 10
50.0
 20
-122.5
 30
0.0
 70
    64
  0
VERTEX
  5
21C
100
AcDbEntity
  8
VZ1
  6
CONTINUOUS
100
AcDbVertex
100
AcDbPolygonMeshVertex
 10
50.0
 20
-113.175243
 30
-46.87872
 70
    64
  0
VERTEX
  5
21D
100
AcDbEntity
  8
VZ1
  6
CONTINUOUS
100
AcDbVertex
100
AcDbPolygonMeshVertex
 10
50.0
 20
-86.620581
 30
-86.620581
 70
    64
  0
VERTEX
  5
21E
100
AcDbEntity
  8
VZ1
  6
CONTINUOUS
100
AcDbVertex
100
AcDbPolygonMeshVertex
 10
50.0
 20
-46.87872
 30
-113.175243
 70
    64
  0
VERTEX
  5
21F
100
AcDbEntity
  8
VZ1
  6
CONTINUOUS
100
AcDbVertex
100
AcDbPolygonMeshVertex
 10
50.0
 20
0.0
 30
-122.5
 70
    64
  0
VERTEX
  5
220
100
AcDbEntity
  8
VZ1
  6
CONTINUOUS
100
AcDbVertex
100
AcDbPolygonMeshVertex
 10
50.0
 20
46.87872
 30
-113.175243
 70
    64
  0
VERTEX
  5
221
100
AcDbEntity
  8
VZ1
  6
CONTINUOUS
100
AcDbVertex
100
AcDbPolygonMeshVertex
 10
50.0
 20
86.620581
 30
-86.620581
 70
    64
  0
VERTEX
  5
222
100
AcDbEntity
  8
VZ1
  6
CONTINUOUS
100
AcDbVertex
100
AcDbPolygonMeshVertex
 10
50.0
 20
113.175243
 30
-46.87872
 70
    64
  0
SEQEND
  5
223
100
AcDbEntity
  8
VZ1
  6
CONTINUOUS
  0
3DSOLID
  5
224
100
AcDbEntity
  8
VZ1
  6
CONTINUOUS
100
AcDbModelerGeometry
 70
     1
  1
noi mj n o          
  1
=0;& {rn {n {rn {rn |
  1
3*2/ {rn {rn {m {o |
  1
,7:33 {rn {rn {rn {l {n |
  1
9><: {rn {k {j {m {rn {i 90-(>-; ,6183: |
  1
9><: {rn {h {g {m {rn {f 90-(>-; ,6183: |
  1
300/ {rn {no {nn {l |
  1
<01:r,*-9><: {rn ho o rnqmgjgliihnjnlkfin:ronk n o rnqglifofjlohlljijf:roni rmqmjomnknhjnkgingm:ronk o rnmmqj n V V o n o V V V V |
  1
9><: {rn {rn {nm {m {rn {nl 90-(>-; ,6183: |
  1
300/ {rn {rn {nk {k |
  1
/3>1:r,*-9><: {rn jo o rfqngkjkhijliihgmfk:ronj rn o nqglifofjlohlljijf:roni nqglifofjlohlljijf:roni o n o V V V V |
  1
300/ {rn {rn {nj {l |
  1
<0:;8: {rn {nn {nn {nk {ni n {j {rn |
  1
300/ {rn {rn {nh {h |
  1
/3>1:r,*-9><: {rn fo o rnqijlmngjhhiiomofl:ronk n o rnqglifofjlohlljijf:roni rnqglifofjlohlljijf:roni o rn o V V V V |
  1
<0:;8: {rn {nk {nk {nn {ni o {g {rn |
  1
<0:;8: {rn {nj {nj {nh {ng n {no {rn |
  1
:;8: {rn {nf {nf {nk {mo o |
  1
<0:;8: {rn {nh {nh {nj {ng o {nm {rn |
  1
:;8: {rn {mn {mn {nh {mm o |
  1
):-+:' {rn {ni {ml |
  1
:336/,:r<*-): {rn jo o rfqngkjkhijliihgmfk:ronj rn o nqglifofjlohlljijf:roni rmqmjomnknhjnkgingm:ronk o rnmmqj n V V |
  1
):-+:' {rn {ng {mk |
  1
:336/,:r<*-): {rn fo o rnqijlmngjhhiiomofl:ronk n o rnqglifofjlohlljijf:roni rmqmjomnknhjnkgingm:ronk o rnmmqj n V V |
  1
/061+ {rn kfqfffffffffffffhf o rnmmqjoooooooooooon |
  1
/061+ {rn gfqfffffffffffffhm o rnmmqjoooooooooooon |
  0
3DSOLID
  5
225
100
AcDbEntity
  8
VZ1
  6
CONTINUOUS
100
AcDbModelerGeometry
 70
     1
  1
noi mj n o          
  1
=0;& {rn {n {rn {rn |
  1
3*2/ {rn {rn {m {o |
  1
,7:33 {rn {rn {rn {l {n |
  1
9><: {rn {k {j {m {rn {i 90-(>-; ,6183: |
  1
9><: {rn {h {g {m {rn {f 90-(>-; ,6183: |
  1
300/ {rn {no {nn {l |
  1
<01:r,*-9><: {rn nimqj o rmqfgkfhhfghkkmokki:ronk n o rnqglifofjlohlljijf:roni rnqnkgoigkjihogkhgh:ronk o rimqj n V V o n o V V V V |
  1
9><: {rn {rn {nm {m {rn {nl 90-(>-; ,6183: |
  1
300/ {rn {rn {nk {k |
  1
/3>1:r,*-9><: {rn njo o rmqhjjlikmfinoolkgg:ronk rn o nqglifofjlohlljijf:roni nqglifofjlohlljijf:roni o n o V V V V |
  1
300/ {rn {rn {nj {l |
  1
<0:;8: {rn {nn {nn {nk {ni n {j {rn |
  1
300/ {rn {rn {nh {h |
  1
/3>1:r,*-9><: {rn nhj o rlqmnkjfnihghglhkol:ronk n o rnqglifofjlohlljijf:roni rnqglifofjlohlljijf:roni o rn o V V V V |
  1
<0:;8: {rn {nk {nk {nn {ni o {g {rn |
  1
<0:;8: {rn {nj {nj {nh {ng n {no {rn |
  1
:;8: {rn {nf {nf {nk {mo o |
  1
<0:;8: {rn {nh {nh {nj {ng o {nm {rn |
  1
:;8: {rn {mn {mn {nh {mm o |
  1
):-+:' {rn {ni {ml |
  1
:336/,:r<*-): {rn njo o rmqhjjlikmfinoolkgg:ronk rn o nqglifofjlohlljijf:roni rnqnkgoigkjihogkhgh:ronk o rimqj n V V |
  1
):-+:' {rn {ng {mk |
  1
:336/,:r<*-): {rn nhj o rlqmnkjfnihghglhkol:ronk n o rnqglifofjlohlljijf:roni rnqnkgoigkjihogkhgh:ronk o rimqj n V V |
  1
/061+ {rn njo o rimqjoooooooooooomg |
  1
/061+ {rn nhj o rimqjoooooooooooomg |
  0
3DSOLID
  5
226
100
AcDbEntity
  8
VZ1
  6
CONTINUOUS
100
AcDbModelerGeometry
 70
     1
  1
noi mj n o          
  1
=0;& {rn {n {rn {rn |
  1
3*2/ {rn {rn {m {o |
  1
,7:33 {rn {rn {rn {l {n |
  1
9><: {rn {k {j {m {rn {i 90-(>-; ,6183: |
  1
9><: {rn {h {g {m {rn {f 90-(>-; ,6183: |
  1
300/ {rn {no {nn {l |
  1
<01:r,*-9><: {rn no o rnqglifofjlohlljijf:ronj n o rnqglifofjlohlljijf:roni rnqnkgoigkjihogkhgh:ronk o rimqj n V V o n o V V V V |
  1
9><: {rn {rn {nm {m {rn {nl 90-(>-; ,6183: |
  1
300/ {rn {rn {nk {k |
  1
/3>1:r,*-9><: {rn o o o rn o nqglifofjlohlljijf:roni nqglifofjlohlljijf:roni o n o V V V V |
  1
300/ {rn {rn {nj {l |
  1
<0:;8: {rn {nn {nn {nk {ni n {j {rn |
  1
300/ {rn {rn {nh {h |
  1
/3>1:r,*-9><: {rn mo o rlqihlgnfoinkihnlng:ronj n o rnqglifofjlohlljijf:roni rnqglifofjlohlljijf:roni o rn o V V V V |
  1
<0:;8: {rn {nk {nk {nn {ni o {g {rn |
  1
<0:;8: {rn {nj {nj {nh {ng n {no {rn |
  1
:;8: {rn {nf {nf {nk {mo o |
  1
<0:;8: {rn {nh {nh {nj {ng o {nm {rn |
  1
:;8: {rn {mn {mn {nh {mm o |
  1
):-+:' {rn {ni {ml |
  1
:336/,:r<*-): {rn o o o rn o nqglifofjlohlljijf:roni rnqnkgoigkjihogkhgh:ronk o rimqj n V V |
  1
):-+:' {rn {ng {mk |
  1
:336/,:r<*-): {rn mo o rlqihlgnfoinkihnlng:ronj n o rnqglifofjlohlljijf:roni rnqnkgoigkjihogkhgh:ronk o rimqj n V V |
  1
/061+ {rn rnqoijgnknolikonjol:ronk o rimqj |
  1
/061+ {rn nfqfffffffffffffgf o rimqj |
  0
POINT
  5
227
100
AcDbEntity
  8
VZ1
  6
CONTINUOUS
100
AcDbPoint
 10
175.0
 20
0.0
 30
0.0
210
1.0
220
0.0
230
-0.0000000000000002
 50
90.0
  0
POINT
  5
228
100
AcDbEntity
  8
VZ1
  6
CONTINUOUS
100
AcDbPoint
 10
0.0
 20
0.0
 30
0.0
210
1.0
220
0.0
230
-0.0000000000000002
 50
90.0
  0
LINE
  5
229
100
AcDbEntity
  8
VZ1
  6
CONTINUOUS
100
AcDbLine
 10
50.0
 20
0.0
 30
0.0
 11
90.0
 21
0.0
 31
0.0
210
1.0
220
0.0
230
-0.0000000000000002
  0
LINE
  5
22A
100
AcDbEntity
  8
VZ1
  6
CONTINUOUS
100
AcDbLine
 10
0.0
 20
0.0
 30
0.0
 11
20.0
 21
0.0
 31
0.0
210
1.0
220
0.0
230
-0.0000000000000002
  0
LINE
  5
22B
100
AcDbEntity
  8
VZ1
  6
CONTINUOUS
100
AcDbLine
 10
20.0
 20
0.0
 30
0.0
 11
50.0
 21
0.0
 31
0.0
210
1.0
220
0.0
230
-0.0000000000000002
  0
LINE
  5
22C
100
AcDbEntity
  8
VZ1
  6
CONTINUOUS
100
AcDbLine
 10
20.0
 20
0.0
 30
0.0
 11
20.0
 21
0.0
 31
0.0
210
1.0
220
0.0
230
-0.0000000000000002
  0
LINE
  5
22D
100
AcDbEntity
  8
VZ1
  6
CONTINUOUS
100
AcDbLine
 10
90.0
 20
0.0
 30
0.0
 11
150.0
 21
0.0
 31
0.0
210
1.0
220
0.0
230
-0.0000000000000002
  0
LINE
  5
22E
100
AcDbEntity
  8
VZ1
  6
CONTINUOUS
100
AcDbLine
 10
150.0
 20
0.0
 30
0.0
 11
175.0
 21
0.0
 31
0.0
210
1.0
220
0.0
230
-0.0000000000000002
  0
ENDBLK
  5
1DE
100
AcDbEntity
  8
0
100
AcDbBlockEnd
  0
BLOCK
  5
23B
100
AcDbEntity
  8
0
100
AcDbBlockBegin
  2
A
 70
     0
 10
0.0
 20
0.0
 30
0.0
  3
A
  1

  0
INSERT
  5
23C
100
AcDbEntity
  8
VZ1
  6
CONTINUOUS
100
AcDbBlockReference
  2
RM-125L_3D
 10
0.0
 20
0.0
 30
0.0
  0
ENDBLK
  5
23D
100
AcDbEntity
  8
0
100
AcDbBlockEnd
  0
ENDSEC
  0
SECTION
  2
ENTITIES
  0
INSERT
  5
23E
100
AcDbEntity
  8
VZ1
  6
CONTINUOUS
100
AcDbBlockReference
  2
A
 10
0.0
 20
0.0
 30
0.0
  0
ENDSEC
  0
SECTION
  2
OBJECTS
  0
DICTIONARY
  5
1A
100
AcDbDictionary
  3
ACAD_GROUP
350
18
  3
ACAD_MLINESTYLE
350
19
  0
DICTIONARY
  5
18
102
{ACAD_REACTORS
330
1A
102
}
100
AcDbDictionary
  0
DICTIONARY
  5
19
102
{ACAD_REACTORS
330
1A
102
}
100
AcDbDictionary
  3
STANDARD
350
1D
  0
MLINESTYLE
  5
1D
102
{ACAD_REACTORS
330
19
102
}
100
AcDbMlineStyle
  2
STANDARD
 70
     0
  3

 62
   256
 51
90.0
 52
90.0
 71
     2
 49
0.5
 62
   256
  6
BYLAYER
 49
-0.5
 62
   256
  6
BYLAYER
  0
ENDSEC
  0
EOF
