  0
SECTION
  2
HEADER
  9
$ACADVER
  1
AC1014
  9
$ACADMAINTVER
 70
     0
  9
$DWGCODEPAGE
  3
ANSI_1250
  9
$INSBASE
 10
0.0
 20
0.0
 30
0.0
  9
$EXTMIN
 10
-440.0
 20
-283.464001
 30
-283.464001
  9
$EXTMAX
 10
0.0
 20
283.464001
 30
309.0
  9
$LIMMIN
 10
0.0
 20
0.0
  9
$LIMMAX
 10
420.0
 20
297.0
  9
$ORTHOMODE
 70
     0
  9
$REGENMODE
 70
     1
  9
$FILLMODE
 70
     1
  9
$QTEXTMODE
 70
     0
  9
$MIRRTEXT
 70
     1
  9
$DRAGMODE
 70
     2
  9
$LTSCALE
 40
1.0
  9
$OSMODE
 70
    15
  9
$ATTMODE
 70
     1
  9
$TEXTSIZE
 40
10.0
  9
$TRACEWID
 40
1.0
  9
$TEXTSTYLE
  7
ED50
  9
$CLAYER
  8
V0-OBRYS
  9
$CELTYPE
  6
CONTINUOUS
  9
$CECOLOR
 62
     0
  9
$CELTSCALE
 40
1.0
  9
$DELOBJ
 70
     1
  9
$DISPSILH
 70
     0
  9
$DIMSCALE
 40
0.0
  9
$DIMASZ
 40
35.0
  9
$DIMEXO
 40
1.0
  9
$DIMDLI
 40
3.75
  9
$DIMRND
 40
0.0
  9
$DIMDLE
 40
0.0
  9
$DIMEXE
 40
1.25
  9
$DIMTP
 40
0.0
  9
$DIMTM
 40
0.0
  9
$DIMTXT
 40
60.0
  9
$DIMCEN
 40
3.0
  9
$DIMTSZ
 40
0.0
  9
$DIMTOL
 70
     0
  9
$DIMLIM
 70
     0
  9
$DIMTIH
 70
     0
  9
$DIMTOH
 70
     0
  9
$DIMSE1
 70
     0
  9
$DIMSE2
 70
     0
  9
$DIMTAD
 70
     1
  9
$DIMZIN
 70
     8
  9
$DIMBLK
  1

  9
$DIMASO
 70
     1
  9
$DIMSHO
 70
     1
  9
$DIMPOST
  1

  9
$DIMAPOST
  1

  9
$DIMALT
 70
     0
  9
$DIMALTD
 70
     4
  9
$DIMALTF
 40
0.0394
  9
$DIMLFAC
 40
1.0
  9
$DIMTOFL
 70
     1
  9
$DIMTVP
 40
0.0
  9
$DIMTIX
 70
     0
  9
$DIMSOXD
 70
     0
  9
$DIMSAH
 70
     1
  9
$DIMBLK1
  1
_OPEN
  9
$DIMBLK2
  1
_OPEN
  9
$DIMSTYLE
  2
ED40
  9
$DIMCLRD
 70
     0
  9
$DIMCLRE
 70
     0
  9
$DIMCLRT
 70
     0
  9
$DIMTFAC
 40
1.0
  9
$DIMGAP
 40
3.0
  9
$DIMJUST
 70
     0
  9
$DIMSD1
 70
     0
  9
$DIMSD2
 70
     0
  9
$DIMTOLJ
 70
     1
  9
$DIMTZIN
 70
     8
  9
$DIMALTZ
 70
     0
  9
$DIMALTTZ
 70
     0
  9
$DIMFIT
 70
     3
  9
$DIMUPT
 70
     0
  9
$DIMUNIT
 70
     2
  9
$DIMDEC
 70
     0
  9
$DIMTDEC
 70
     1
  9
$DIMALTU
 70
     8
  9
$DIMALTTD
 70
     4
  9
$DIMTXSTY
  7
ED50
  9
$DIMAUNIT
 70
     0
  9
$LUNITS
 70
     2
  9
$LUPREC
 70
     4
  9
$SKETCHINC
 40
1.0
  9
$FILLETRAD
 40
5.0
  9
$AUNITS
 70
     0
  9
$AUPREC
 70
     0
  9
$MENU
  1
.
  9
$ELEVATION
 40
0.0
  9
$PELEVATION
 40
0.0
  9
$THICKNESS
 40
0.0
  9
$LIMCHECK
 70
     0
  9
$BLIPMODE
 70
     0
  9
$CHAMFERA
 40
10.0
  9
$CHAMFERB
 40
10.0
  9
$CHAMFERC
 40
20.0
  9
$CHAMFERD
 40
0.0
  9
$SKPOLY
 70
     1
  9
$TDCREATE
 40
2451196.643769328
  9
$TDUPDATE
 40
2453312.720568472
  9
$TDINDWG
 40
0.4173995139
  9
$TDUSRTIMER
 40
0.4173995139
  9
$USRTIMER
 70
     1
  9
$ANGBASE
 50
0.0
  9
$ANGDIR
 70
     0
  9
$PDMODE
 70
     3
  9
$PDSIZE
 40
25.0
  9
$PLINEWID
 40
0.0
  9
$COORDS
 70
     1
  9
$SPLFRAME
 70
     0
  9
$SPLINETYPE
 70
     6
  9
$SPLINESEGS
 70
     8
  9
$ATTDIA
 70
     0
  9
$ATTREQ
 70
     1
  9
$HANDLING
 70
     1
  9
$HANDSEED
  5
16E8
  9
$SURFTAB1
 70
     6
  9
$SURFTAB2
 70
     6
  9
$SURFTYPE
 70
     6
  9
$SURFU
 70
     6
  9
$SURFV
 70
     6
  9
$UCSNAME
  2

  9
$UCSORG
 10
0.0
 20
0.0
 30
0.0
  9
$UCSXDIR
 10
1.0
 20
0.0
 30
0.0
  9
$UCSYDIR
 10
0.0
 20
1.0
 30
0.0
  9
$PUCSNAME
  2

  9
$PUCSORG
 10
0.0
 20
0.0
 30
0.0
  9
$PUCSXDIR
 10
1.0
 20
0.0
 30
0.0
  9
$PUCSYDIR
 10
0.0
 20
1.0
 30
0.0
  9
$USERI1
 70
     0
  9
$USERI2
 70
     0
  9
$USERI3
 70
     2
  9
$USERI4
 70
     2
  9
$USERI5
 70
     6
  9
$USERR1
 40
281.0
  9
$USERR2
 40
321.0
  9
$USERR3
 40
0.0
  9
$USERR4
 40
0.0
  9
$USERR5
 40
0.0
  9
$WORLDVIEW
 70
     1
  9
$SHADEDGE
 70
     3
  9
$SHADEDIF
 70
    70
  9
$TILEMODE
 70
     1
  9
$MAXACTVP
 70
    48
  9
$PINSBASE
 10
0.0
 20
0.0
 30
0.0
  9
$PLIMCHECK
 70
     0
  9
$PEXTMIN
 10
1.000000E+20
 20
1.000000E+20
 30
1.000000E+20
  9
$PEXTMAX
 10
-1.000000E+20
 20
-1.000000E+20
 30
-1.000000E+20
  9
$PLIMMIN
 10
0.0
 20
0.0
  9
$PLIMMAX
 10
420.0
 20
297.0
  9
$UNITMODE
 70
     0
  9
$VISRETAIN
 70
     1
  9
$PLINEGEN
 70
     0
  9
$PSLTSCALE
 70
     0
  9
$TREEDEPTH
 70
  3020
  9
$PICKSTYLE
 70
     1
  9
$CMLSTYLE
  2
STANDARD
  9
$CMLJUST
 70
     0
  9
$CMLSCALE
 40
1.0
  9
$PROXYGRAPHICS
 70
     1
  9
$MEASUREMENT
 70
     1
  0
ENDSEC
  0
SECTION
  2
CLASSES
  0
CLASS
  1
DICTIONARYVAR
  2
AcDbDictionaryVar
  3
"AutoCAD"
 90
        0
280
     0
281
     0
  0
CLASS
  1
LWPOLYLINE
  2
AcDbPolyline
  3
"AutoCAD"
 90
        0
280
     0
281
     1
  0
CLASS
  1
HATCH
  2
AcDbHatch
  3
"ACAD_SEDONA"
 90
        0
280
     0
281
     1
  0
ENDSEC
  0
SECTION
  2
TABLES
  0
TABLE
  2
VPORT
  5
8
100
AcDbSymbolTable
 70
     2
  0
VPORT
  5
16E7
100
AcDbSymbolTableRecord
100
AcDbViewportTableRecord
  2
*ACTIVE
 70
     0
 10
0.0
 20
0.0
 11
1.0
 21
1.0
 12
-204.916774
 22
36.17968
 13
0.0
 23
0.0
 14
10.0
 24
10.0
 15
10.0
 25
10.0
 16
1.550584
 26
-3.968932
 36
1.338928
 17
0.0
 27
0.0
 37
0.0
 40
780.500913
 41
1.550584
 42
50.0
 43
0.0
 44
0.0
 50
0.0
 51
0.0
 71
     0
 72
   100
 73
     1
 74
     1
 75
     0
 76
     0
 77
     0
 78
     0
  0
ENDTAB
  0
TABLE
  2
LTYPE
  5
5
100
AcDbSymbolTable
 70
     3
  0
LTYPE
  5
14
100
AcDbSymbolTableRecord
100
AcDbLinetypeTableRecord
  2
BYBLOCK
 70
     0
  3

 72
    65
 73
     0
 40
0.0
  0
LTYPE
  5
15
100
AcDbSymbolTableRecord
100
AcDbLinetypeTableRecord
  2
BYLAYER
 70
     0
  3

 72
    65
 73
     0
 40
0.0
  0
LTYPE
  5
16
100
AcDbSymbolTableRecord
100
AcDbLinetypeTableRecord
  2
CONTINUOUS
 70
     0
  3
Solid line
 72
    65
 73
     0
 40
0.0
  0
LTYPE
  5
7F
100
AcDbSymbolTableRecord
100
AcDbLinetypeTableRecord
  2
DASHDOT
 70
     0
  3
Dash dot __ . __ . __ . __ . __ . __ . __ . __
 72
    65
 73
     4
 40
25.4
 49
12.7
 74
     0
 49
-6.35
 74
     0
 49
0.0
 74
     0
 49
-6.35
 74
     0
  0
LTYPE
  5
80
100
AcDbSymbolTableRecord
100
AcDbLinetypeTableRecord
  2
DASHED
 70
     0
  3
Dashed __ __ __ __ __ __ __ __ __ __ __ __ __ _
 72
    65
 73
     2
 40
19.05
 49
12.7
 74
     0
 49
-6.35
 74
     0
  0
ENDTAB
  0
TABLE
  2
LAYER
  5
2
100
AcDbSymbolTable
 70
     6
  0
LAYER
  5
F
100
AcDbSymbolTableRecord
100
AcDbLayerTableRecord
  2
0
 70
     0
 62
     7
  6
CONTINUOUS
  0
LAYER
  5
9E
100
AcDbSymbolTableRecord
100
AcDbLayerTableRecord
  2
DEFPOINTS
 70
     0
 62
     7
  6
CONTINUOUS
  0
LAYER
  5
377
100
AcDbSymbolTableRecord
100
AcDbLayerTableRecord
  2
V0-OBRYS
 70
     0
 62
    90
  6
CONTINUOUS
  0
LAYER
  5
378
100
AcDbSymbolTableRecord
100
AcDbLayerTableRecord
  2
V0-VYPLNE
 70
     0
 62
    63
  6
DASHDOT
  0
LAYER
  5
37A
100
AcDbSymbolTableRecord
100
AcDbLayerTableRecord
  2
V0-NAZVY
 70
     0
 62
   210
  6
CONTINUOUS
  0
LAYER
  5
559
100
AcDbSymbolTableRecord
100
AcDbLayerTableRecord
  2
V0-ZBYTEK
 70
     0
 62
    51
  6
CONTINUOUS
  0
ENDTAB
  0
TABLE
  2
STYLE
  5
3
100
AcDbSymbolTable
 70
     7
  0
STYLE
  5
10
100
AcDbSymbolTableRecord
100
AcDbTextStyleTableRecord
  2
STANDARD
 70
     0
 40
7.0
 41
1.0
 50
0.0
 71
     0
 42
20.0
  3
ISOCP.shx
  4

  0
STYLE
  5
331
100
AcDbSymbolTableRecord
100
AcDbTextStyleTableRecord
  2
ED30
 70
     0
 40
30.0
 41
1.0
 50
0.0
 71
     0
 42
2.5
  3
ISOCP.shx
  4

  0
STYLE
  5
5D2
100
AcDbSymbolTableRecord
100
AcDbTextStyleTableRecord
  2
ED20
 70
     0
 40
20.0
 41
1.0
 50
0.0
 71
     0
 42
20.0
  3
isocp.shx
  4

  0
STYLE
  5
64F
100
AcDbSymbolTableRecord
100
AcDbTextStyleTableRecord
  2
ED40
 70
     0
 40
40.0
 41
1.0
 50
0.0
 71
     0
 42
20.0
  3
isocp.shx
  4

  0
STYLE
  5
650
100
AcDbSymbolTableRecord
100
AcDbTextStyleTableRecord
  2
ED10
 70
     0
 40
10.0
 41
1.0
 50
0.0
 71
     0
 42
10.0
  3
isocp.shx
  4

  0
STYLE
  5
ECA
100
AcDbSymbolTableRecord
100
AcDbTextStyleTableRecord
  2
ED15
 70
     0
 40
15.0
 41
1.0
 50
0.0
 71
     0
 42
30.0
  3
isocp.shx
  4

  0
STYLE
  5
1436
100
AcDbSymbolTableRecord
100
AcDbTextStyleTableRecord
  2
ED50
 70
     0
 40
50.0
 41
1.0
 50
0.0
 71
     0
 42
10.0
  3
isocp.shx
  4

  0
ENDTAB
  0
TABLE
  2
VIEW
  5
6
100
AcDbSymbolTable
 70
     0
  0
ENDTAB
  0
TABLE
  2
UCS
  5
7
100
AcDbSymbolTable
 70
     0
  0
ENDTAB
  0
TABLE
  2
APPID
  5
9
100
AcDbSymbolTable
 70
     3
  0
APPID
  5
11
100
AcDbSymbolTableRecord
100
AcDbRegAppTableRecord
  2
ACAD
 70
     0
  0
APPID
  5
113D
100
AcDbSymbolTableRecord
100
AcDbRegAppTableRecord
  2
CONTENTBLOCKICON
 70
     0
  0
APPID
  5
113E
100
AcDbSymbolTableRecord
100
AcDbRegAppTableRecord
  2
CONTENTBLOCKDESCRIPTION
 70
     0
  0
ENDTAB
  0
TABLE
  2
DIMSTYLE
  5
A
100
AcDbSymbolTable
 70
     6
  0
DIMSTYLE
105
1D
100
AcDbSymbolTableRecord
100
AcDbDimStyleTableRecord
  2
STANDARD
 70
     0
  3

  4

  5

  6
_OPEN
  7
_OPEN
 40
0.0
 41
15.0
 42
0.625
 43
3.75
 44
1.25
 45
0.0
 46
0.0
 47
0.0
 48
0.0
140
15.0
141
2.5
142
0.0
143
0.0394
144
1.0
145
0.0
146
1.0
147
3.0
 71
     0
 72
     0
 73
     0
 74
     0
 75
     0
 76
     0
 77
     1
 78
     8
170
     0
171
     4
172
     1
173
     1
174
     0
175
     0
176
     0
177
     0
178
     0
270
     2
271
     0
272
     1
273
     8
274
     4
340
331
275
     0
280
     0
281
     0
282
     0
283
     1
284
     8
285
     0
286
     0
287
     3
288
     0
  0
DIMSTYLE
105
397
100
AcDbSymbolTableRecord
100
AcDbDimStyleTableRecord
  2
ED40
 70
     0
  3

  4

  5

  6
_OPEN
  7
_OPEN
 40
0.0
 41
35.0
 42
1.0
 43
3.75
 44
1.25
 45
0.0
 46
0.0
 47
0.0
 48
0.0
140
50.0
141
3.0
142
0.0
143
0.0394
144
1.0
145
0.0
146
1.0
147
3.0
 71
     0
 72
     0
 73
     0
 74
     0
 75
     0
 76
     0
 77
     1
 78
     8
170
     0
171
     4
172
     1
173
     1
174
     0
175
     0
176
     0
177
     0
178
     0
270
     2
271
     0
272
     1
273
     8
274
     4
340
1436
275
     0
280
     0
281
     0
282
     0
283
     1
284
     8
285
     0
286
     0
287
     3
288
     0
  0
DIMSTYLE
105
656
100
AcDbSymbolTableRecord
100
AcDbDimStyleTableRecord
  2
ED30
 70
     0
  3

  4

  5

  6
_OPEN
  7
_OPEN
 40
0.0
 41
25.0
 42
1.0
 43
3.75
 44
1.25
 45
0.0
 46
0.0
 47
0.0
 48
0.0
140
30.0
141
3.0
142
0.0
143
0.0394
144
1.0
145
0.0
146
1.0
147
2.0
 71
     0
 72
     0
 73
     0
 74
     0
 75
     0
 76
     0
 77
     1
 78
     8
170
     0
171
     4
172
     1
173
     1
174
     0
175
     0
176
     0
177
     0
178
     0
270
     2
271
     0
272
     1
273
     8
274
     4
340
331
275
     0
280
     0
281
     0
282
     0
283
     1
284
     8
285
     0
286
     0
287
     3
288
     0
  0
DIMSTYLE
105
657
100
AcDbSymbolTableRecord
100
AcDbDimStyleTableRecord
  2
ED20
 70
     0
  3

  4

  5

  6
_OPEN
  7
_OPEN
 40
0.0
 41
20.0
 42
1.0
 43
3.75
 44
1.25
 45
0.0
 46
0.0
 47
0.0
 48
0.0
140
20.0
141
3.0
142
0.0
143
0.0394
144
1.0
145
0.0
146
1.0
147
1.5
 71
     0
 72
     0
 73
     0
 74
     0
 75
     0
 76
     0
 77
     1
 78
     8
170
     0
171
     4
172
     1
173
     1
174
     0
175
     0
176
     0
177
     0
178
     0
270
     2
271
     0
272
     1
273
     8
274
     4
340
5D2
275
     0
280
     0
281
     0
282
     0
283
     1
284
     8
285
     0
286
     0
287
     3
288
     0
  0
DIMSTYLE
105
658
100
AcDbSymbolTableRecord
100
AcDbDimStyleTableRecord
  2
ED10
 70
     0
  3

  4

  5

  6
_OPEN
  7
_OPEN
 40
0.0
 41
15.0
 42
1.0
 43
3.75
 44
1.25
 45
0.0
 46
0.0
 47
0.0
 48
0.0
140
10.0
141
3.0
142
0.0
143
0.0394
144
1.0
145
0.0
146
1.0
147
1.5
 71
     0
 72
     0
 73
     0
 74
     0
 75
     0
 76
     0
 77
     1
 78
     8
170
     0
171
     4
172
     1
173
     1
174
     0
175
     0
176
    41
177
    41
178
    41
270
     2
271
     0
272
     1
273
     8
274
     4
340
5D2
275
     0
280
     0
281
     0
282
     0
283
     1
284
     8
285
     0
286
     0
287
     3
288
     0
  0
DIMSTYLE
105
ECB
100
AcDbSymbolTableRecord
100
AcDbDimStyleTableRecord
  2
ED15
 70
     0
  3

  4

  5

  6
_OPEN
  7
_OPEN
 40
0.0
 41
15.0
 42
1.0
 43
3.75
 44
1.25
 45
0.0
 46
0.0
 47
0.0
 48
0.0
140
15.0
141
3.0
142
0.0
143
0.0394
144
1.0
145
0.0
146
1.0
147
1.5
 71
     0
 72
     0
 73
     0
 74
     0
 75
     0
 76
     0
 77
     1
 78
     8
170
     0
171
     4
172
     1
173
     1
174
     0
175
     0
176
     0
177
     0
178
     0
270
     2
271
     0
272
     1
273
     8
274
     4
340
ECA
275
     0
280
     0
281
     0
282
     0
283
     1
284
     8
285
     0
286
     0
287
     3
288
     0
  0
ENDTAB
  0
TABLE
  2
BLOCK_RECORD
  5
1
100
AcDbSymbolTable
 70
     9
  0
BLOCK_RECORD
  5
1A
100
AcDbSymbolTableRecord
100
AcDbBlockTableRecord
  2
*MODEL_SPACE
  0
BLOCK_RECORD
  5
17
100
AcDbSymbolTableRecord
100
AcDbBlockTableRecord
  2
*PAPER_SPACE
  0
BLOCK_RECORD
  5
90
100
AcDbSymbolTableRecord
100
AcDbBlockTableRecord
  2
_OPEN
  0
BLOCK_RECORD
  5
15FD
100
AcDbSymbolTableRecord
100
AcDbBlockTableRecord
  2
ZNKL
  0
ENDTAB
  0
ENDSEC
  0
SECTION
  2
BLOCKS
  0
BLOCK
  5
1B
100
AcDbEntity
  8
0
100
AcDbBlockBegin
  2
*MODEL_SPACE
 70
     0
 10
0.0
 20
0.0
 30
0.0
  3
*MODEL_SPACE
  1

  0
ENDBLK
  5
1C
100
AcDbEntity
  8
0
100
AcDbBlockEnd
  0
BLOCK
  5
18
100
AcDbEntity
 67
     1
  8
0
100
AcDbBlockBegin
  2
*PAPER_SPACE
 70
     0
 10
0.0
 20
0.0
 30
0.0
  3
*PAPER_SPACE
  1

  0
ENDBLK
  5
19
100
AcDbEntity
 67
     1
  8
0
100
AcDbBlockEnd
  0
BLOCK
  5
91
100
AcDbEntity
  8
0
100
AcDbBlockBegin
  2
_OPEN
 70
     0
 10
0.0
 20
0.0
 30
0.0
  3
_OPEN
  1

  0
LINE
  5
92
100
AcDbEntity
  8
0
  6
BYBLOCK
 62
     0
100
AcDbLine
 10
-1.0
 20
0.166667
 30
0.0
 11
0.0
 21
0.0
 31
0.0
  0
LINE
  5
93
100
AcDbEntity
  8
0
  6
BYBLOCK
 62
     0
100
AcDbLine
 10
0.0
 20
0.0
 30
0.0
 11
-1.0
 21
-0.166667
 31
0.0
  0
LINE
  5
94
100
AcDbEntity
  8
0
  6
BYBLOCK
 62
     0
100
AcDbLine
 10
0.0
 20
0.0
 30
0.0
 11
-1.0
 21
0.0
 31
0.0
  0
ENDBLK
  5
95
100
AcDbEntity
  8
0
100
AcDbBlockEnd
  0
BLOCK
  5
1603
100
AcDbEntity
  8
0
 62
    52
100
AcDbBlockBegin
  2
ZNKL
 70
     0
 10
0.0
 20
0.0
 30
0.0
  3
ZNKL
  1

  0
LINE
  5
15FE
100
AcDbEntity
  8
0
  6
CONTINUOUS
 62
     7
100
AcDbLine
 10
-0.5
 20
0.0
 30
0.0
 11
0.5
 21
0.0
 31
0.0
  0
CIRCLE
  5
15FF
100
AcDbEntity
  8
0
  6
CONTINUOUS
 62
     7
100
AcDbCircle
 10
0.0
 20
0.0
 30
0.0
 40
0.5
  0
LINE
  5
1600
100
AcDbEntity
  8
0
  6
CONTINUOUS
 62
     7
100
AcDbLine
 10
-0.353553
 20
-0.353553
 30
0.0
 11
0.353553
 21
0.353553
 31
0.0
  0
LINE
  5
1601
100
AcDbEntity
  8
0
  6
CONTINUOUS
 62
     7
100
AcDbLine
 10
0.353553
 20
-0.353553
 30
0.0
 11
-0.353553
 21
0.353553
 31
0.0
  0
LINE
  5
1602
100
AcDbEntity
  8
0
  6
CONTINUOUS
 62
     7
100
AcDbLine
 10
0.0
 20
-0.5
 30
0.0
 11
0.0
 21
0.5
 31
0.0
  0
ENDBLK
  5
1604
100
AcDbEntity
  8
0
 62
    52
100
AcDbBlockEnd
  0
ENDSEC
  0
SECTION
  2
ENTITIES
  0
POINT
  5
1535
100
AcDbEntity
  8
V0-OBRYS
  6
DASHED
 62
     7
100
AcDbPoint
 10
-219.037405
 20
7.311638
 30
309.0
210
-0.0000000000000004
220
-0.0000000000000001
230
-1.0
 50
180.0
  0
POLYLINE
  5
157C
100
AcDbEntity
  8
V0-OBRYS
  6
DASHED
 62
     7
100
AcDbPolygonMesh
 66
     1
 10
0.0
 20
0.0
 30
0.0
 70
    48
 71
     2
 72
    24
  0
VERTEX
  5
157D
100
AcDbEntity
  8
V0-OBRYS
  6
DASHED
 62
     7
100
AcDbVertex
100
AcDbPolygonMeshVertex
 10
-219.037405
 20
63.811638
 30
309.0
 70
    64
  0
VERTEX
  5
157E
100
AcDbEntity
  8
V0-OBRYS
  6
DASHED
 62
     7
100
AcDbVertex
100
AcDbPolygonMeshVertex
 10
-204.414129
 20
61.886447
 30
309.0
 70
    64
  0
VERTEX
  5
157F
100
AcDbEntity
  8
V0-OBRYS
  6
DASHED
 62
     7
100
AcDbVertex
100
AcDbPolygonMeshVertex
 10
-190.787405
 20
56.242073
 30
309.0
 70
    64
  0
VERTEX
  5
1580
100
AcDbEntity
  8
V0-OBRYS
  6
DASHED
 62
     7
100
AcDbVertex
100
AcDbPolygonMeshVertex
 10
-179.085871
 20
47.263171
 30
309.0
 70
    64
  0
VERTEX
  5
1581
100
AcDbEntity
  8
V0-OBRYS
  6
DASHED
 62
     7
100
AcDbVertex
100
AcDbPolygonMeshVertex
 10
-170.106969
 20
35.561638
 30
309.0
 70
    64
  0
VERTEX
  5
1582
100
AcDbEntity
  8
V0-OBRYS
  6
DASHED
 62
     7
100
AcDbVertex
100
AcDbPolygonMeshVertex
 10
-164.462595
 20
21.934914
 30
309.0
 70
    64
  0
VERTEX
  5
1583
100
AcDbEntity
  8
V0-OBRYS
  6
DASHED
 62
     7
100
AcDbVertex
100
AcDbPolygonMeshVertex
 10
-162.537405
 20
7.311638
 30
309.0
 70
    64
  0
VERTEX
  5
1584
100
AcDbEntity
  8
V0-OBRYS
  6
DASHED
 62
     7
100
AcDbVertex
100
AcDbPolygonMeshVertex
 10
-164.462595
 20
-7.311638
 30
309.0
 70
    64
  0
VERTEX
  5
1585
100
AcDbEntity
  8
V0-OBRYS
  6
DASHED
 62
     7
100
AcDbVertex
100
AcDbPolygonMeshVertex
 10
-170.106969
 20
-20.938362
 30
309.0
 70
    64
  0
VERTEX
  5
1586
100
AcDbEntity
  8
V0-OBRYS
  6
DASHED
 62
     7
100
AcDbVertex
100
AcDbPolygonMeshVertex
 10
-179.085871
 20
-32.639895
 30
309.0
 70
    64
  0
VERTEX
  5
1587
100
AcDbEntity
  8
V0-OBRYS
  6
DASHED
 62
     7
100
AcDbVertex
100
AcDbPolygonMeshVertex
 10
-190.787405
 20
-41.618797
 30
309.0
 70
    64
  0
VERTEX
  5
1588
100
AcDbEntity
  8
V0-OBRYS
  6
DASHED
 62
     7
100
AcDbVertex
100
AcDbPolygonMeshVertex
 10
-204.414129
 20
-47.263171
 30
309.0
 70
    64
  0
VERTEX
  5
1589
100
AcDbEntity
  8
V0-OBRYS
  6
DASHED
 62
     7
100
AcDbVertex
100
AcDbPolygonMeshVertex
 10
-219.037405
 20
-49.188362
 30
309.0
 70
    64
  0
VERTEX
  5
158A
100
AcDbEntity
  8
V0-OBRYS
  6
DASHED
 62
     7
100
AcDbVertex
100
AcDbPolygonMeshVertex
 10
-233.660681
 20
-47.263171
 30
309.0
 70
    64
  0
VERTEX
  5
158B
100
AcDbEntity
  8
V0-OBRYS
  6
DASHED
 62
     7
100
AcDbVertex
100
AcDbPolygonMeshVertex
 10
-247.287405
 20
-41.618797
 30
309.0
 70
    64
  0
VERTEX
  5
158C
100
AcDbEntity
  8
V0-OBRYS
  6
DASHED
 62
     7
100
AcDbVertex
100
AcDbPolygonMeshVertex
 10
-258.988938
 20
-32.639895
 30
309.0
 70
    64
  0
VERTEX
  5
158D
100
AcDbEntity
  8
V0-OBRYS
  6
DASHED
 62
     7
100
AcDbVertex
100
AcDbPolygonMeshVertex
 10
-267.96784
 20
-20.938362
 30
309.0
 70
    64
  0
VERTEX
  5
158E
100
AcDbEntity
  8
V0-OBRYS
  6
DASHED
 62
     7
100
AcDbVertex
100
AcDbPolygonMeshVertex
 10
-273.612214
 20
-7.311638
 30
309.0
 70
    64
  0
VERTEX
  5
158F
100
AcDbEntity
  8
V0-OBRYS
  6
DASHED
 62
     7
100
AcDbVertex
100
AcDbPolygonMeshVertex
 10
-275.537405
 20
7.311638
 30
309.0
 70
    64
  0
VERTEX
  5
1590
100
AcDbEntity
  8
V0-OBRYS
  6
DASHED
 62
     7
100
AcDbVertex
100
AcDbPolygonMeshVertex
 10
-273.612214
 20
21.934914
 30
309.0
 70
    64
  0
VERTEX
  5
1591
100
AcDbEntity
  8
V0-OBRYS
  6
DASHED
 62
     7
100
AcDbVertex
100
AcDbPolygonMeshVertex
 10
-267.96784
 20
35.561638
 30
309.0
 70
    64
  0
VERTEX
  5
1592
100
AcDbEntity
  8
V0-OBRYS
  6
DASHED
 62
     7
100
AcDbVertex
100
AcDbPolygonMeshVertex
 10
-258.988938
 20
47.263171
 30
309.0
 70
    64
  0
VERTEX
  5
1593
100
AcDbEntity
  8
V0-OBRYS
  6
DASHED
 62
     7
100
AcDbVertex
100
AcDbPolygonMeshVertex
 10
-247.287405
 20
56.242073
 30
309.0
 70
    64
  0
VERTEX
  5
1594
100
AcDbEntity
  8
V0-OBRYS
  6
DASHED
 62
     7
100
AcDbVertex
100
AcDbPolygonMeshVertex
 10
-233.660681
 20
61.886447
 30
309.0
 70
    64
  0
VERTEX
  5
1595
100
AcDbEntity
  8
V0-OBRYS
  6
DASHED
 62
     7
100
AcDbVertex
100
AcDbPolygonMeshVertex
 10
-219.037405
 20
63.811638
 30
277.0
 70
    64
  0
VERTEX
  5
1596
100
AcDbEntity
  8
V0-OBRYS
  6
DASHED
 62
     7
100
AcDbVertex
100
AcDbPolygonMeshVertex
 10
-204.414129
 20
61.886447
 30
277.0
 70
    64
  0
VERTEX
  5
1597
100
AcDbEntity
  8
V0-OBRYS
  6
DASHED
 62
     7
100
AcDbVertex
100
AcDbPolygonMeshVertex
 10
-190.787405
 20
56.242073
 30
277.0
 70
    64
  0
VERTEX
  5
1598
100
AcDbEntity
  8
V0-OBRYS
  6
DASHED
 62
     7
100
AcDbVertex
100
AcDbPolygonMeshVertex
 10
-179.085871
 20
47.263171
 30
277.0
 70
    64
  0
VERTEX
  5
1599
100
AcDbEntity
  8
V0-OBRYS
  6
DASHED
 62
     7
100
AcDbVertex
100
AcDbPolygonMeshVertex
 10
-170.106969
 20
35.561638
 30
277.0
 70
    64
  0
VERTEX
  5
159A
100
AcDbEntity
  8
V0-OBRYS
  6
DASHED
 62
     7
100
AcDbVertex
100
AcDbPolygonMeshVertex
 10
-164.462595
 20
21.934914
 30
277.0
 70
    64
  0
VERTEX
  5
159B
100
AcDbEntity
  8
V0-OBRYS
  6
DASHED
 62
     7
100
AcDbVertex
100
AcDbPolygonMeshVertex
 10
-162.537405
 20
7.311638
 30
277.0
 70
    64
  0
VERTEX
  5
159C
100
AcDbEntity
  8
V0-OBRYS
  6
DASHED
 62
     7
100
AcDbVertex
100
AcDbPolygonMeshVertex
 10
-164.462595
 20
-7.311638
 30
277.0
 70
    64
  0
VERTEX
  5
159D
100
AcDbEntity
  8
V0-OBRYS
  6
DASHED
 62
     7
100
AcDbVertex
100
AcDbPolygonMeshVertex
 10
-170.106969
 20
-20.938362
 30
277.0
 70
    64
  0
VERTEX
  5
159E
100
AcDbEntity
  8
V0-OBRYS
  6
DASHED
 62
     7
100
AcDbVertex
100
AcDbPolygonMeshVertex
 10
-179.085871
 20
-32.639895
 30
277.0
 70
    64
  0
VERTEX
  5
159F
100
AcDbEntity
  8
V0-OBRYS
  6
DASHED
 62
     7
100
AcDbVertex
100
AcDbPolygonMeshVertex
 10
-190.787405
 20
-41.618797
 30
277.0
 70
    64
  0
VERTEX
  5
15A0
100
AcDbEntity
  8
V0-OBRYS
  6
DASHED
 62
     7
100
AcDbVertex
100
AcDbPolygonMeshVertex
 10
-204.414129
 20
-47.263171
 30
277.0
 70
    64
  0
VERTEX
  5
15A1
100
AcDbEntity
  8
V0-OBRYS
  6
DASHED
 62
     7
100
AcDbVertex
100
AcDbPolygonMeshVertex
 10
-219.037405
 20
-49.188362
 30
277.0
 70
    64
  0
VERTEX
  5
15A2
100
AcDbEntity
  8
V0-OBRYS
  6
DASHED
 62
     7
100
AcDbVertex
100
AcDbPolygonMeshVertex
 10
-233.660681
 20
-47.263171
 30
277.0
 70
    64
  0
VERTEX
  5
15A3
100
AcDbEntity
  8
V0-OBRYS
  6
DASHED
 62
     7
100
AcDbVertex
100
AcDbPolygonMeshVertex
 10
-247.287405
 20
-41.618797
 30
277.0
 70
    64
  0
VERTEX
  5
15A4
100
AcDbEntity
  8
V0-OBRYS
  6
DASHED
 62
     7
100
AcDbVertex
100
AcDbPolygonMeshVertex
 10
-258.988938
 20
-32.639895
 30
277.0
 70
    64
  0
VERTEX
  5
15A5
100
AcDbEntity
  8
V0-OBRYS
  6
DASHED
 62
     7
100
AcDbVertex
100
AcDbPolygonMeshVertex
 10
-267.96784
 20
-20.938362
 30
277.0
 70
    64
  0
VERTEX
  5
15A6
100
AcDbEntity
  8
V0-OBRYS
  6
DASHED
 62
     7
100
AcDbVertex
100
AcDbPolygonMeshVertex
 10
-273.612214
 20
-7.311638
 30
277.0
 70
    64
  0
VERTEX
  5
15A7
100
AcDbEntity
  8
V0-OBRYS
  6
DASHED
 62
     7
100
AcDbVertex
100
AcDbPolygonMeshVertex
 10
-275.537405
 20
7.311638
 30
277.0
 70
    64
  0
VERTEX
  5
15A8
100
AcDbEntity
  8
V0-OBRYS
  6
DASHED
 62
     7
100
AcDbVertex
100
AcDbPolygonMeshVertex
 10
-273.612214
 20
21.934914
 30
277.0
 70
    64
  0
VERTEX
  5
15A9
100
AcDbEntity
  8
V0-OBRYS
  6
DASHED
 62
     7
100
AcDbVertex
100
AcDbPolygonMeshVertex
 10
-267.96784
 20
35.561638
 30
277.0
 70
    64
  0
VERTEX
  5
15AA
100
AcDbEntity
  8
V0-OBRYS
  6
DASHED
 62
     7
100
AcDbVertex
100
AcDbPolygonMeshVertex
 10
-258.988938
 20
47.263171
 30
277.0
 70
    64
  0
VERTEX
  5
15AB
100
AcDbEntity
  8
V0-OBRYS
  6
DASHED
 62
     7
100
AcDbVertex
100
AcDbPolygonMeshVertex
 10
-247.287405
 20
56.242073
 30
277.0
 70
    64
  0
VERTEX
  5
15AC
100
AcDbEntity
  8
V0-OBRYS
  6
DASHED
 62
     7
100
AcDbVertex
100
AcDbPolygonMeshVertex
 10
-233.660681
 20
61.886447
 30
277.0
 70
    64
  0
SEQEND
  5
15AD
100
AcDbEntity
  8
V0-OBRYS
  6
DASHED
 62
     7
  0
POLYLINE
  5
15AE
100
AcDbEntity
  8
V0-OBRYS
  6
DASHED
 62
     7
100
AcDbPolygonMesh
 66
     1
 10
0.0
 20
0.0
 30
0.0
 70
    16
 71
     6
 72
     3
  0
VERTEX
  5
15AF
100
AcDbEntity
  8
V0-OBRYS
  6
DASHED
 62
     7
100
AcDbVertex
100
AcDbPolygonMeshVertex
 10
-224.037405
 20
12.311638
 30
306.0
 70
    64
  0
VERTEX
  5
15B0
100
AcDbEntity
  8
V0-OBRYS
  6
DASHED
 62
     7
100
AcDbVertex
100
AcDbPolygonMeshVertex
 10
-224.037405
 20
12.311638
 30
309.0
 70
    64
  0
VERTEX
  5
15B1
100
AcDbEntity
  8
V0-OBRYS
  6
DASHED
 62
     7
100
AcDbVertex
100
AcDbPolygonMeshVertex
 10
-224.037405
 20
12.311638
 30
309.0
 70
    64
  0
VERTEX
  5
15B2
100
AcDbEntity
  8
V0-OBRYS
  6
DASHED
 62
     7
100
AcDbVertex
100
AcDbPolygonMeshVertex
 10
-224.037405
 20
2.311638
 30
306.0
 70
    64
  0
VERTEX
  5
15B3
100
AcDbEntity
  8
V0-OBRYS
  6
DASHED
 62
     7
100
AcDbVertex
100
AcDbPolygonMeshVertex
 10
-224.037405
 20
2.311638
 30
309.0
 70
    64
  0
VERTEX
  5
15B4
100
AcDbEntity
  8
V0-OBRYS
  6
DASHED
 62
     7
100
AcDbVertex
100
AcDbPolygonMeshVertex
 10
-224.037405
 20
2.311638
 30
309.0
 70
    64
  0
VERTEX
  5
15B5
100
AcDbEntity
  8
V0-OBRYS
  6
DASHED
 62
     7
100
AcDbVertex
100
AcDbPolygonMeshVertex
 10
-89.037405
 20
2.311638
 30
306.0
 70
    64
  0
VERTEX
  5
15B6
100
AcDbEntity
  8
V0-OBRYS
  6
DASHED
 62
     7
100
AcDbVertex
100
AcDbPolygonMeshVertex
 10
-89.037405
 20
2.311638
 30
309.0
 70
    64
  0
VERTEX
  5
15B7
100
AcDbEntity
  8
V0-OBRYS
  6
DASHED
 62
     7
100
AcDbVertex
100
AcDbPolygonMeshVertex
 10
-224.037405
 20
2.311638
 30
309.0
 70
    64
  0
VERTEX
  5
15B8
100
AcDbEntity
  8
V0-OBRYS
  6
DASHED
 62
     7
100
AcDbVertex
100
AcDbPolygonMeshVertex
 10
-89.037405
 20
12.311638
 30
306.0
 70
    64
  0
VERTEX
  5
15B9
100
AcDbEntity
  8
V0-OBRYS
  6
DASHED
 62
     7
100
AcDbVertex
100
AcDbPolygonMeshVertex
 10
-89.037405
 20
12.311638
 30
309.0
 70
    64
  0
VERTEX
  5
15BA
100
AcDbEntity
  8
V0-OBRYS
  6
DASHED
 62
     7
100
AcDbVertex
100
AcDbPolygonMeshVertex
 10
-224.037405
 20
12.311638
 30
309.0
 70
    64
  0
VERTEX
  5
15BB
100
AcDbEntity
  8
V0-OBRYS
  6
DASHED
 62
     7
100
AcDbVertex
100
AcDbPolygonMeshVertex
 10
-89.037405
 20
12.311638
 30
306.0
 70
    64
  0
VERTEX
  5
15BC
100
AcDbEntity
  8
V0-OBRYS
  6
DASHED
 62
     7
100
AcDbVertex
100
AcDbPolygonMeshVertex
 10
-89.037405
 20
12.311638
 30
306.0
 70
    64
  0
VERTEX
  5
15BD
100
AcDbEntity
  8
V0-OBRYS
  6
DASHED
 62
     7
100
AcDbVertex
100
AcDbPolygonMeshVertex
 10
-224.037405
 20
12.311638
 30
306.0
 70
    64
  0
VERTEX
  5
15BE
100
AcDbEntity
  8
V0-OBRYS
  6
DASHED
 62
     7
100
AcDbVertex
100
AcDbPolygonMeshVertex
 10
-89.037405
 20
2.311638
 30
306.0
 70
    64
  0
VERTEX
  5
15BF
100
AcDbEntity
  8
V0-OBRYS
  6
DASHED
 62
     7
100
AcDbVertex
100
AcDbPolygonMeshVertex
 10
-89.037405
 20
2.311638
 30
306.0
 70
    64
  0
VERTEX
  5
15C0
100
AcDbEntity
  8
V0-OBRYS
  6
DASHED
 62
     7
100
AcDbVertex
100
AcDbPolygonMeshVertex
 10
-224.037405
 20
2.311638
 30
306.0
 70
    64
  0
SEQEND
  5
15C1
100
AcDbEntity
  8
V0-OBRYS
  6
DASHED
 62
     7
  0
POINT
  5
15F7
100
AcDbEntity
  8
V0-OBRYS
  6
DASHED
 62
     7
100
AcDbPoint
 10
0.0
 20
0.0
 30
0.0
210
1.0
220
-0.0000000000000002
230
-0.0000000000000002
 50
90.0
  0
CIRCLE
  5
15F9
100
AcDbEntity
  8
V0-VYPLNE
  6
CONTINUOUS
 62
    52
100
AcDbCircle
 10
0.0
 20
0.0
 30
70.0
 40
280.664356
210
-1.0
220
0.0000000000000002
230
0.0000000000000006
  0
CIRCLE
  5
15FA
100
AcDbEntity
  8
V0-VYPLNE
  6
CONTINUOUS
 62
    52
100
AcDbCircle
 10
0.0
 20
0.0
 30
70.0
 40
283.464001
210
-1.0
220
0.0000000000000002
230
0.0000000000000006
  0
CIRCLE
  5
15FB
100
AcDbEntity
  8
V0-VYPLNE
  6
CONTINUOUS
 62
    52
100
AcDbCircle
 10
0.0
 20
0.0
 30
360.0
 40
280.664356
210
-1.0
220
0.0000000000000002
230
0.0000000000000006
  0
CIRCLE
  5
15FC
100
AcDbEntity
  8
V0-VYPLNE
  6
CONTINUOUS
 62
    52
100
AcDbCircle
 10
0.0
 20
0.0
 30
360.0
 40
283.464001
210
-1.0
220
0.0000000000000002
230
0.0000000000000006
  0
INSERT
  5
1605
100
AcDbEntity
  8
V0-VYPLNE
  6
CONTINUOUS
 62
    52
100
AcDbBlockReference
  2
ZNKL
 10
-220.0
 20
0.0
 30
280.0
 41
150.0
 42
150.0
 43
150.0
210
-0.0000000000000002
220
-1.0
230
0.0000000000000001
  0
INSERT
  5
1607
100
AcDbEntity
  8
V0-OBRYS
  6
CONTINUOUS
 62
     7
100
AcDbBlockReference
  2
ZNKL
 10
-220.0
 20
0.0
 30
-280.0
 41
150.0
 42
150.0
 43
150.0
  0
INSERT
  5
160A
100
AcDbEntity
  8
V0-VYPLNE
  6
CONTINUOUS
 62
    52
100
AcDbBlockReference
  2
ZNKL
 10
220.0
 20
0.0
 30
280.0
 41
150.0
 42
150.0
 43
150.0
210
0.0000000000000001
220
1.0
230
0.0000000000000001
  0
POLYLINE
  5
16AF
100
AcDbEntity
  8
V0-OBRYS
  6
CONTINUOUS
 62
     0
100
AcDbPolygonMesh
 66
     1
 10
0.0
 20
0.0
 30
0.0
 70
    48
 71
     2
 72
    24
  0
VERTEX
  5
16B0
100
AcDbEntity
  8
V0-OBRYS
  6
CONTINUOUS
 62
     0
100
AcDbVertex
100
AcDbPolygonMeshVertex
 10
0.0
 20
0.0
 30
280.0
 70
    64
  0
VERTEX
  5
16B1
100
AcDbEntity
  8
V0-OBRYS
  6
CONTINUOUS
 62
     0
100
AcDbVertex
100
AcDbPolygonMeshVertex
 10
0.0
 20
72.469333
 30
270.459231
 70
    64
  0
VERTEX
  5
16B2
100
AcDbEntity
  8
V0-OBRYS
  6
CONTINUOUS
 62
     0
100
AcDbVertex
100
AcDbPolygonMeshVertex
 10
0.0
 20
140.0
 30
242.487113
 70
    64
  0
VERTEX
  5
16B3
100
AcDbEntity
  8
V0-OBRYS
  6
CONTINUOUS
 62
     0
100
AcDbVertex
100
AcDbPolygonMeshVertex
 10
0.0
 20
197.989899
 30
197.989899
 70
    64
  0
VERTEX
  5
16B4
100
AcDbEntity
  8
V0-OBRYS
  6
CONTINUOUS
 62
     0
100
AcDbVertex
100
AcDbPolygonMeshVertex
 10
0.0
 20
242.487113
 30
140.0
 70
    64
  0
VERTEX
  5
16B5
100
AcDbEntity
  8
V0-OBRYS
  6
CONTINUOUS
 62
     0
100
AcDbVertex
100
AcDbPolygonMeshVertex
 10
0.0
 20
270.459231
 30
72.469333
 70
    64
  0
VERTEX
  5
16B6
100
AcDbEntity
  8
V0-OBRYS
  6
CONTINUOUS
 62
     0
100
AcDbVertex
100
AcDbPolygonMeshVertex
 10
0.0
 20
280.0
 30
0.0
 70
    64
  0
VERTEX
  5
16B7
100
AcDbEntity
  8
V0-OBRYS
  6
CONTINUOUS
 62
     0
100
AcDbVertex
100
AcDbPolygonMeshVertex
 10
0.0
 20
270.459231
 30
-72.469333
 70
    64
  0
VERTEX
  5
16B8
100
AcDbEntity
  8
V0-OBRYS
  6
CONTINUOUS
 62
     0
100
AcDbVertex
100
AcDbPolygonMeshVertex
 10
0.0
 20
242.487113
 30
-140.0
 70
    64
  0
VERTEX
  5
16B9
100
AcDbEntity
  8
V0-OBRYS
  6
CONTINUOUS
 62
     0
100
AcDbVertex
100
AcDbPolygonMeshVertex
 10
0.0
 20
197.989899
 30
-197.989899
 70
    64
  0
VERTEX
  5
16BA
100
AcDbEntity
  8
V0-OBRYS
  6
CONTINUOUS
 62
     0
100
AcDbVertex
100
AcDbPolygonMeshVertex
 10
0.0
 20
140.0
 30
-242.487113
 70
    64
  0
VERTEX
  5
16BB
100
AcDbEntity
  8
V0-OBRYS
  6
CONTINUOUS
 62
     0
100
AcDbVertex
100
AcDbPolygonMeshVertex
 10
0.0
 20
72.469333
 30
-270.459231
 70
    64
  0
VERTEX
  5
16BC
100
AcDbEntity
  8
V0-OBRYS
  6
CONTINUOUS
 62
     0
100
AcDbVertex
100
AcDbPolygonMeshVertex
 10
0.0
 20
0.0
 30
-280.0
 70
    64
  0
VERTEX
  5
16BD
100
AcDbEntity
  8
V0-OBRYS
  6
CONTINUOUS
 62
     0
100
AcDbVertex
100
AcDbPolygonMeshVertex
 10
0.0
 20
-72.469333
 30
-270.459231
 70
    64
  0
VERTEX
  5
16BE
100
AcDbEntity
  8
V0-OBRYS
  6
CONTINUOUS
 62
     0
100
AcDbVertex
100
AcDbPolygonMeshVertex
 10
0.0
 20
-140.0
 30
-242.487113
 70
    64
  0
VERTEX
  5
16BF
100
AcDbEntity
  8
V0-OBRYS
  6
CONTINUOUS
 62
     0
100
AcDbVertex
100
AcDbPolygonMeshVertex
 10
0.0
 20
-197.989899
 30
-197.989899
 70
    64
  0
VERTEX
  5
16C0
100
AcDbEntity
  8
V0-OBRYS
  6
CONTINUOUS
 62
     0
100
AcDbVertex
100
AcDbPolygonMeshVertex
 10
0.0
 20
-242.487113
 30
-140.0
 70
    64
  0
VERTEX
  5
16C1
100
AcDbEntity
  8
V0-OBRYS
  6
CONTINUOUS
 62
     0
100
AcDbVertex
100
AcDbPolygonMeshVertex
 10
0.0
 20
-270.459231
 30
-72.469333
 70
    64
  0
VERTEX
  5
16C2
100
AcDbEntity
  8
V0-OBRYS
  6
CONTINUOUS
 62
     0
100
AcDbVertex
100
AcDbPolygonMeshVertex
 10
0.0
 20
-280.0
 30
0.0
 70
    64
  0
VERTEX
  5
16C3
100
AcDbEntity
  8
V0-OBRYS
  6
CONTINUOUS
 62
     0
100
AcDbVertex
100
AcDbPolygonMeshVertex
 10
0.0
 20
-270.459231
 30
72.469333
 70
    64
  0
VERTEX
  5
16C4
100
AcDbEntity
  8
V0-OBRYS
  6
CONTINUOUS
 62
     0
100
AcDbVertex
100
AcDbPolygonMeshVertex
 10
0.0
 20
-242.487113
 30
140.0
 70
    64
  0
VERTEX
  5
16C5
100
AcDbEntity
  8
V0-OBRYS
  6
CONTINUOUS
 62
     0
100
AcDbVertex
100
AcDbPolygonMeshVertex
 10
0.0
 20
-197.989899
 30
197.989899
 70
    64
  0
VERTEX
  5
16C6
100
AcDbEntity
  8
V0-OBRYS
  6
CONTINUOUS
 62
     0
100
AcDbVertex
100
AcDbPolygonMeshVertex
 10
0.0
 20
-140.0
 30
242.487113
 70
    64
  0
VERTEX
  5
16C7
100
AcDbEntity
  8
V0-OBRYS
  6
CONTINUOUS
 62
     0
100
AcDbVertex
100
AcDbPolygonMeshVertex
 10
0.0
 20
-72.469333
 30
270.459231
 70
    64
  0
VERTEX
  5
16C8
100
AcDbEntity
  8
V0-OBRYS
  6
CONTINUOUS
 62
     0
100
AcDbVertex
100
AcDbPolygonMeshVertex
 10
-440.0
 20
0.0
 30
280.0
 70
    64
  0
VERTEX
  5
16C9
100
AcDbEntity
  8
V0-OBRYS
  6
CONTINUOUS
 62
     0
100
AcDbVertex
100
AcDbPolygonMeshVertex
 10
-440.0
 20
72.469333
 30
270.459231
 70
    64
  0
VERTEX
  5
16CA
100
AcDbEntity
  8
V0-OBRYS
  6
CONTINUOUS
 62
     0
100
AcDbVertex
100
AcDbPolygonMeshVertex
 10
-440.0
 20
140.0
 30
242.487113
 70
    64
  0
VERTEX
  5
16CB
100
AcDbEntity
  8
V0-OBRYS
  6
CONTINUOUS
 62
     0
100
AcDbVertex
100
AcDbPolygonMeshVertex
 10
-440.0
 20
197.989899
 30
197.989899
 70
    64
  0
VERTEX
  5
16CC
100
AcDbEntity
  8
V0-OBRYS
  6
CONTINUOUS
 62
     0
100
AcDbVertex
100
AcDbPolygonMeshVertex
 10
-440.0
 20
242.487113
 30
140.0
 70
    64
  0
VERTEX
  5
16CD
100
AcDbEntity
  8
V0-OBRYS
  6
CONTINUOUS
 62
     0
100
AcDbVertex
100
AcDbPolygonMeshVertex
 10
-440.0
 20
270.459231
 30
72.469333
 70
    64
  0
VERTEX
  5
16CE
100
AcDbEntity
  8
V0-OBRYS
  6
CONTINUOUS
 62
     0
100
AcDbVertex
100
AcDbPolygonMeshVertex
 10
-440.0
 20
280.0
 30
0.0
 70
    64
  0
VERTEX
  5
16CF
100
AcDbEntity
  8
V0-OBRYS
  6
CONTINUOUS
 62
     0
100
AcDbVertex
100
AcDbPolygonMeshVertex
 10
-440.0
 20
270.459231
 30
-72.469333
 70
    64
  0
VERTEX
  5
16D0
100
AcDbEntity
  8
V0-OBRYS
  6
CONTINUOUS
 62
     0
100
AcDbVertex
100
AcDbPolygonMeshVertex
 10
-440.0
 20
242.487113
 30
-140.0
 70
    64
  0
VERTEX
  5
16D1
100
AcDbEntity
  8
V0-OBRYS
  6
CONTINUOUS
 62
     0
100
AcDbVertex
100
AcDbPolygonMeshVertex
 10
-440.0
 20
197.989899
 30
-197.989899
 70
    64
  0
VERTEX
  5
16D2
100
AcDbEntity
  8
V0-OBRYS
  6
CONTINUOUS
 62
     0
100
AcDbVertex
100
AcDbPolygonMeshVertex
 10
-440.0
 20
140.0
 30
-242.487113
 70
    64
  0
VERTEX
  5
16D3
100
AcDbEntity
  8
V0-OBRYS
  6
CONTINUOUS
 62
     0
100
AcDbVertex
100
AcDbPolygonMeshVertex
 10
-440.0
 20
72.469333
 30
-270.459231
 70
    64
  0
VERTEX
  5
16D4
100
AcDbEntity
  8
V0-OBRYS
  6
CONTINUOUS
 62
     0
100
AcDbVertex
100
AcDbPolygonMeshVertex
 10
-440.0
 20
0.0
 30
-280.0
 70
    64
  0
VERTEX
  5
16D5
100
AcDbEntity
  8
V0-OBRYS
  6
CONTINUOUS
 62
     0
100
AcDbVertex
100
AcDbPolygonMeshVertex
 10
-440.0
 20
-72.469333
 30
-270.459231
 70
    64
  0
VERTEX
  5
16D6
100
AcDbEntity
  8
V0-OBRYS
  6
CONTINUOUS
 62
     0
100
AcDbVertex
100
AcDbPolygonMeshVertex
 10
-440.0
 20
-140.0
 30
-242.487113
 70
    64
  0
VERTEX
  5
16D7
100
AcDbEntity
  8
V0-OBRYS
  6
CONTINUOUS
 62
     0
100
AcDbVertex
100
AcDbPolygonMeshVertex
 10
-440.0
 20
-197.989899
 30
-197.989899
 70
    64
  0
VERTEX
  5
16D8
100
AcDbEntity
  8
V0-OBRYS
  6
CONTINUOUS
 62
     0
100
AcDbVertex
100
AcDbPolygonMeshVertex
 10
-440.0
 20
-242.487113
 30
-140.0
 70
    64
  0
VERTEX
  5
16D9
100
AcDbEntity
  8
V0-OBRYS
  6
CONTINUOUS
 62
     0
100
AcDbVertex
100
AcDbPolygonMeshVertex
 10
-440.0
 20
-270.459231
 30
-72.469333
 70
    64
  0
VERTEX
  5
16DA
100
AcDbEntity
  8
V0-OBRYS
  6
CONTINUOUS
 62
     0
100
AcDbVertex
100
AcDbPolygonMeshVertex
 10
-440.0
 20
-280.0
 30
0.0
 70
    64
  0
VERTEX
  5
16DB
100
AcDbEntity
  8
V0-OBRYS
  6
CONTINUOUS
 62
     0
100
AcDbVertex
100
AcDbPolygonMeshVertex
 10
-440.0
 20
-270.459231
 30
72.469333
 70
    64
  0
VERTEX
  5
16DC
100
AcDbEntity
  8
V0-OBRYS
  6
CONTINUOUS
 62
     0
100
AcDbVertex
100
AcDbPolygonMeshVertex
 10
-440.0
 20
-242.487113
 30
140.0
 70
    64
  0
VERTEX
  5
16DD
100
AcDbEntity
  8
V0-OBRYS
  6
CONTINUOUS
 62
     0
100
AcDbVertex
100
AcDbPolygonMeshVertex
 10
-440.0
 20
-197.989899
 30
197.989899
 70
    64
  0
VERTEX
  5
16DE
100
AcDbEntity
  8
V0-OBRYS
  6
CONTINUOUS
 62
     0
100
AcDbVertex
100
AcDbPolygonMeshVertex
 10
-440.0
 20
-140.0
 30
242.487113
 70
    64
  0
VERTEX
  5
16DF
100
AcDbEntity
  8
V0-OBRYS
  6
CONTINUOUS
 62
     0
100
AcDbVertex
100
AcDbPolygonMeshVertex
 10
-440.0
 20
-72.469333
 30
270.459231
 70
    64
  0
SEQEND
  5
16E0
100
AcDbEntity
  8
V0-OBRYS
  6
CONTINUOUS
 62
     0
  0
POINT
  5
16E6
100
AcDbEntity
  8
V0-OBRYS
  6
DASHED
 62
     7
100
AcDbPoint
 10
-440.0
 20
0.0
 30
0.0
210
1.0
220
-0.0000000000000002
230
-0.0000000000000002
 50
90.0
  0
VIEWPORT
  5
22
100
AcDbEntity
 67
     1
  8
0
100
AcDbViewport
 10
261.517699
 20
148.5
 30
0.0
 40
523.035398
 41
297.0
 68
    -1
 69
     1
1001
ACAD
1000
MVIEW
1002
{
1070
    16
1010
0.0
1020
0.0
1030
0.0
1010
0.0
1020
0.0
1030
1.0
1040
0.0
1040
297.0
1040
261.517699
1040
148.5
1040
50.0
1040
0.0
1040
0.0
1070
     0
1070
   100
1070
     1
1070
     1
1070
     0
1070
     0
1070
     0
1070
     0
1040
0.0
1040
0.0
1040
0.0
1040
1.0
1040
1.0
1040
10.0
1040
10.0
1070
     0
1002
{
1002
}
1002
}
  0
ENDSEC
  0
SECTION
  2
OBJECTS
  0
DICTIONARY
  5
C
100
AcDbDictionary
  3
ACAD_GROUP
350
D
  3
ACAD_MLINESTYLE
350
E
  3
ACDBVARIABLEDICTIONARY
350
5D
  0
DICTIONARY
  5
D
102
{ACAD_REACTORS
330
C
102
}
100
AcDbDictionary
  0
DICTIONARY
  5
E
102
{ACAD_REACTORS
330
C
102
}
100
AcDbDictionary
  3
STANDARD
350
13
  0
DICTIONARY
  5
5D
102
{ACAD_REACTORS
330
C
102
}
100
AcDbDictionary
  3
DIMADEC
350
5E
  3
SORTENTS
350
3D8
  0
MLINESTYLE
  5
13
102
{ACAD_REACTORS
330
E
102
}
100
AcDbMlineStyle
  2
STANDARD
 70
     0
  3

 62
     0
 51
90.0
 52
90.0
 71
     2
 49
0.5
 62
   256
  6
BYLAYER
 49
-0.5
 62
   256
  6
BYLAYER
  0
DICTIONARYVAR
  5
5E
102
{ACAD_REACTORS
330
5D
102
}
100
DictionaryVariables
280
     0
  1
0
  0
DICTIONARYVAR
  5
3D8
102
{ACAD_REACTORS
330
5D
102
}
100
DictionaryVariables
280
     0
  1
96
  0
ENDSEC
  0
EOF
