  0
SECTION
  2
HEADER
  9
$ACADVER
  1
AC1014
  9
$ACADMAINTVER
 70
     0
  9
$DWGCODEPAGE
  3
ANSI_1250
  9
$INSBASE
 10
0.0
 20
0.0
 30
0.0
  9
$EXTMIN
 10
-35.0
 20
-425.0
 30
-330.0
  9
$EXTMAX
 10
780.0
 20
815.0
 30
800.0
  9
$LIMMIN
 10
0.0
 20
0.0
  9
$LIMMAX
 10
420.0
 20
297.0
  9
$ORTHOMODE
 70
     0
  9
$REGENMODE
 70
     1
  9
$FILLMODE
 70
     0
  9
$QTEXTMODE
 70
     0
  9
$MIRRTEXT
 70
     1
  9
$DRAGMODE
 70
     2
  9
$LTSCALE
 40
1.0
  9
$OSMODE
 70
    39
  9
$ATTMODE
 70
     1
  9
$TEXTSIZE
 40
1.0
  9
$TRACEWID
 40
1.0
  9
$TEXTSTYLE
  7
ROMANS
  9
$CLAYER
  8
VZ1
  9
$CELTYPE
  6
BYLAYER
  9
$CECOLOR
 62
   256
  9
$CELTSCALE
 40
1.0
  9
$DELOBJ
 70
     1
  9
$DISPSILH
 70
     0
  9
$DIMSCALE
 40
1.0
  9
$DIMASZ
 40
2.0
  9
$DIMEXO
 40
0.625
  9
$DIMDLI
 40
3.75
  9
$DIMRND
 40
1.0
  9
$DIMDLE
 40
0.0
  9
$DIMEXE
 40
1.0
  9
$DIMTP
 40
0.0
  9
$DIMTM
 40
0.0
  9
$DIMTXT
 40
2.5
  9
$DIMCEN
 40
-100.0
  9
$DIMTSZ
 40
0.0
  9
$DIMTOL
 70
     0
  9
$DIMLIM
 70
     0
  9
$DIMTIH
 70
     0
  9
$DIMTOH
 70
     0
  9
$DIMSE1
 70
     0
  9
$DIMSE2
 70
     0
  9
$DIMTAD
 70
     1
  9
$DIMZIN
 70
     8
  9
$DIMBLK
  1

  9
$DIMASO
 70
     1
  9
$DIMSHO
 70
     1
  9
$DIMPOST
  1

  9
$DIMAPOST
  1

  9
$DIMALT
 70
     0
  9
$DIMALTD
 70
     4
  9
$DIMALTF
 40
0.0394
  9
$DIMLFAC
 40
1.0
  9
$DIMTOFL
 70
     1
  9
$DIMTVP
 40
2.0
  9
$DIMTIX
 70
     0
  9
$DIMSOXD
 70
     0
  9
$DIMSAH
 70
     1
  9
$DIMBLK1
  1
_OBLIQUE
  9
$DIMBLK2
  1
_OBLIQUE
  9
$DIMSTYLE
  2
STANEK
  9
$DIMCLRD
 70
     1
  9
$DIMCLRE
 70
     1
  9
$DIMCLRT
 70
     1
  9
$DIMTFAC
 40
2.2
  9
$DIMGAP
 40
0.625
  9
$DIMJUST
 70
     0
  9
$DIMSD1
 70
     0
  9
$DIMSD2
 70
     0
  9
$DIMTOLJ
 70
     1
  9
$DIMTZIN
 70
     8
  9
$DIMALTZ
 70
     8
  9
$DIMALTTZ
 70
     8
  9
$DIMFIT
 70
     5
  9
$DIMUPT
 70
     0
  9
$DIMUNIT
 70
     2
  9
$DIMDEC
 70
     4
  9
$DIMTDEC
 70
     4
  9
$DIMALTU
 70
     2
  9
$DIMALTTD
 70
     4
  9
$DIMTXSTY
  7
ROMANS
  9
$DIMAUNIT
 70
     0
  9
$LUNITS
 70
     2
  9
$LUPREC
 70
     4
  9
$SKETCHINC
 40
1.0
  9
$FILLETRAD
 40
10.0
  9
$AUNITS
 70
     0
  9
$AUPREC
 70
     0
  9
$MENU
  1
.
  9
$ELEVATION
 40
0.0
  9
$PELEVATION
 40
0.0
  9
$THICKNESS
 40
0.0
  9
$LIMCHECK
 70
     0
  9
$BLIPMODE
 70
     0
  9
$CHAMFERA
 40
10.0
  9
$CHAMFERB
 40
10.0
  9
$CHAMFERC
 40
0.0
  9
$CHAMFERD
 40
0.0
  9
$SKPOLY
 70
     0
  9
$TDCREATE
 40
2450990.465911806
  9
$TDUPDATE
 40
2452948.476625463
  9
$TDINDWG
 40
0.3892706019
  9
$TDUSRTIMER
 40
0.3892706019
  9
$USRTIMER
 70
     1
  9
$ANGBASE
 50
0.0
  9
$ANGDIR
 70
     0
  9
$PDMODE
 70
     3
  9
$PDSIZE
 40
0.0
  9
$PLINEWID
 40
0.0
  9
$COORDS
 70
     1
  9
$SPLFRAME
 70
     0
  9
$SPLINETYPE
 70
     6
  9
$SPLINESEGS
 70
     8
  9
$ATTDIA
 70
     0
  9
$ATTREQ
 70
     1
  9
$HANDLING
 70
     1
  9
$HANDSEED
  5
3A6
  9
$SURFTAB1
 70
    12
  9
$SURFTAB2
 70
     6
  9
$SURFTYPE
 70
     6
  9
$SURFU
 70
     6
  9
$SURFV
 70
     6
  9
$UCSNAME
  2

  9
$UCSORG
 10
0.0
 20
0.0
 30
0.0
  9
$UCSXDIR
 10
1.0
 20
0.0
 30
0.0
  9
$UCSYDIR
 10
0.0
 20
1.0
 30
0.0
  9
$PUCSNAME
  2

  9
$PUCSORG
 10
0.0
 20
0.0
 30
0.0
  9
$PUCSXDIR
 10
1.0
 20
0.0
 30
0.0
  9
$PUCSYDIR
 10
0.0
 20
1.0
 30
0.0
  9
$USERI1
 70
     1
  9
$USERI2
 70
     5
  9
$USERI3
 70
     2
  9
$USERI4
 70
     2
  9
$USERI5
 70
     6
  9
$USERR1
 40
281.0
  9
$USERR2
 40
321.0
  9
$USERR3
 40
0.0
  9
$USERR4
 40
0.0
  9
$USERR5
 40
0.0
  9
$WORLDVIEW
 70
     1
  9
$SHADEDGE
 70
     3
  9
$SHADEDIF
 70
    70
  9
$TILEMODE
 70
     1
  9
$MAXACTVP
 70
    48
  9
$PINSBASE
 10
0.0
 20
0.0
 30
0.0
  9
$PLIMCHECK
 70
     0
  9
$PEXTMIN
 10
1.000000E+20
 20
1.000000E+20
 30
1.000000E+20
  9
$PEXTMAX
 10
-1.000000E+20
 20
-1.000000E+20
 30
-1.000000E+20
  9
$PLIMMIN
 10
0.0
 20
0.0
  9
$PLIMMAX
 10
420.0
 20
297.0
  9
$UNITMODE
 70
     0
  9
$VISRETAIN
 70
     1
  9
$PLINEGEN
 70
     0
  9
$PSLTSCALE
 70
     1
  9
$TREEDEPTH
 70
  3020
  9
$PICKSTYLE
 70
     1
  9
$CMLSTYLE
  2
STANDARD
  9
$CMLJUST
 70
     0
  9
$CMLSCALE
 40
1.0
  9
$PROXYGRAPHICS
 70
     1
  9
$MEASUREMENT
 70
     0
  0
ENDSEC
  0
SECTION
  2
CLASSES
  0
CLASS
  1
DICTIONARYVAR
  2
AcDbDictionaryVar
  3
"AutoCAD"
 90
        0
280
     0
281
     0
  0
ENDSEC
  0
SECTION
  2
TABLES
  0
TABLE
  2
VPORT
  5
12
100
AcDbSymbolTable
 70
     7
  0
VPORT
  5
3A5
100
AcDbSymbolTableRecord
100
AcDbViewportTableRecord
  2
*ACTIVE
 70
     0
 10
0.0
 20
0.0
 11
1.0
 21
1.0
 12
380.889438
 22
50.096619
 13
0.0
 23
0.0
 14
10.0
 24
10.0
 15
10.0
 25
10.0
 16
-1.460931
 26
-4.168734
 36
1.182686
 17
0.0
 27
0.0
 37
0.0
 40
1131.09024
 41
1.660377
 42
50.0
 43
0.0
 44
0.0
 50
0.0
 51
0.0
 71
     0
 72
   100
 73
     1
 74
     1
 75
     0
 76
     0
 77
     0
 78
     0
  0
ENDTAB
  0
TABLE
  2
LTYPE
  5
D
100
AcDbSymbolTable
 70
     3
  0
LTYPE
  5
E
100
AcDbSymbolTableRecord
100
AcDbLinetypeTableRecord
  2
BYBLOCK
 70
     0
  3

 72
    65
 73
     0
 40
0.0
  0
LTYPE
  5
F
100
AcDbSymbolTableRecord
100
AcDbLinetypeTableRecord
  2
BYLAYER
 70
     0
  3

 72
    65
 73
     0
 40
0.0
  0
LTYPE
  5
5
100
AcDbSymbolTableRecord
100
AcDbLinetypeTableRecord
  2
CONTINUOUS
 70
     0
  3
Solid line
 72
    65
 73
     0
 40
0.0
  0
LTYPE
  5
2CF
100
AcDbSymbolTableRecord
100
AcDbLinetypeTableRecord
  2
ACAD_ISO04W100
 70
     0
  3
ISO dlouhá čerchovaná ____ . ____ . ____ . ____
 72
    65
 73
     4
 40
30.5
 49
24.0
 74
     0
 49
-3.0
 74
     0
 49
0.5
 74
     0
 49
-3.0
 74
     0
  0
LTYPE
  5
2D2
100
AcDbSymbolTableRecord
100
AcDbLinetypeTableRecord
  2
ACAD_ISO03W100
 70
     0
  3
ISO přerušovaná __    __    __    __    __    _
 72
    65
 73
     2
 40
30.0
 49
12.0
 74
     0
 49
-18.0
 74
     0
  0
ENDTAB
  0
TABLE
  2
LAYER
  5
A
100
AcDbSymbolTable
 70
     3
  0
LAYER
  5
4
100
AcDbSymbolTableRecord
100
AcDbLayerTableRecord
  2
0
 70
     0
 62
     7
  6
CONTINUOUS
  0
LAYER
  5
1B
100
AcDbSymbolTableRecord
100
AcDbLayerTableRecord
  2
VZ1
 70
     0
 62
     7
  6
CONTINUOUS
  0
LAYER
  5
12F
100
AcDbSymbolTableRecord
100
AcDbLayerTableRecord
  2
DEFPOINTS
 70
     0
 62
     7
  6
CONTINUOUS
  0
ENDTAB
  0
TABLE
  2
STYLE
  5
B
100
AcDbSymbolTable
 70
     3
  0
STYLE
  5
C
100
AcDbSymbolTableRecord
100
AcDbTextStyleTableRecord
  2
STANDARD
 70
     0
 40
0.0
 41
0.8
 50
0.0
 71
     0
 42
2.5
  3
txt.shx
  4

  0
STYLE
  5
1C
100
AcDbSymbolTableRecord
100
AcDbTextStyleTableRecord
  2
ROMANS
 70
     0
 40
50.0
 41
0.8
 50
0.0
 71
     0
 42
1.0
  3
technic_.ttf
  4

1001
ACAD
1000
Technic
1071
      514
  0
STYLE
  5
2CE
100
AcDbSymbolTableRecord
100
AcDbTextStyleTableRecord
  2

 70
     1
 40
0.0
 41
1.0
 50
0.0
 71
     0
 42
1.0
  3
ltypeshp.shx
  4

  0
ENDTAB
  0
TABLE
  2
VIEW
  5
10
100
AcDbSymbolTable
 70
     0
  0
ENDTAB
  0
TABLE
  2
UCS
  5
11
100
AcDbSymbolTable
 70
     0
  0
ENDTAB
  0
TABLE
  2
APPID
  5
14
100
AcDbSymbolTable
 70
     1
  0
APPID
  5
15
100
AcDbSymbolTableRecord
100
AcDbRegAppTableRecord
  2
ACAD
 70
     0
  0
ENDTAB
  0
TABLE
  2
DIMSTYLE
  5
16
100
AcDbSymbolTable
 70
     1
  0
DIMSTYLE
105
1E
100
AcDbSymbolTableRecord
100
AcDbDimStyleTableRecord
  2
STANEK
 70
     0
  3

  4

  5

  6
_OBLIQUE
  7
_OBLIQUE
 40
0.0
 41
2.0
 42
0.625
 43
3.75
 44
1.0
 45
1.0
 46
0.0
 47
0.0
 48
0.0
140
2.2
141
-100.0
142
0.0
143
0.0394
144
2.2
145
2.0
146
2.2
147
0.625
 71
     0
 72
     0
 73
     0
 74
     0
 75
     0
 76
     0
 77
     1
 78
     8
170
     0
171
     4
172
     1
173
     1
174
     0
175
     0
176
     1
177
     1
178
     1
270
     2
271
     4
272
     4
273
     2
274
     4
340
1C
275
     0
280
     0
281
     0
282
     0
283
     1
284
     8
285
     8
286
     8
287
     5
288
     0
  0
ENDTAB
  0
TABLE
  2
BLOCK_RECORD
  5
1
100
AcDbSymbolTable
 70
     8
  0
BLOCK_RECORD
  5
2
100
AcDbSymbolTableRecord
100
AcDbBlockTableRecord
  2
*MODEL_SPACE
  0
BLOCK_RECORD
  5
7
100
AcDbSymbolTableRecord
100
AcDbBlockTableRecord
  2
*PAPER_SPACE
  0
BLOCK_RECORD
  5
1F
100
AcDbSymbolTableRecord
100
AcDbBlockTableRecord
  2
_OBLIQUE
  0
BLOCK_RECORD
  5
91
100
AcDbSymbolTableRecord
100
AcDbBlockTableRecord
  2
EDRI-200_3D
  0
BLOCK_RECORD
  5
C6
100
AcDbSymbolTableRecord
100
AcDbBlockTableRecord
  2
EDRI-250_3D
  0
BLOCK_RECORD
  5
FB
100
AcDbSymbolTableRecord
100
AcDbBlockTableRecord
  2
EDRI-315_3D
  0
BLOCK_RECORD
  5
130
100
AcDbSymbolTableRecord
100
AcDbBlockTableRecord
  2
183233_3D
  0
BLOCK_RECORD
  5
195
100
AcDbSymbolTableRecord
100
AcDbBlockTableRecord
  2
EDRI-355_3D
  0
BLOCK_RECORD
  5
1CA
100
AcDbSymbolTableRecord
100
AcDbBlockTableRecord
  2
EDRI-400_3D
  0
BLOCK_RECORD
  5
1FF
100
AcDbSymbolTableRecord
100
AcDbBlockTableRecord
  2
183236_3D
  0
ENDTAB
  0
ENDSEC
  0
SECTION
  2
BLOCKS
  0
BLOCK
  5
3
100
AcDbEntity
  8
0
 62
     1
100
AcDbBlockBegin
  2
*MODEL_SPACE
 70
     0
 10
0.0
 20
0.0
 30
0.0
  3
*MODEL_SPACE
  1

  0
ENDBLK
  5
6
100
AcDbEntity
  8
0
 62
     1
100
AcDbBlockEnd
  0
BLOCK
  5
8
100
AcDbEntity
 67
     1
  8
0
 62
     1
100
AcDbBlockBegin
  2
*PAPER_SPACE
 70
     0
 10
0.0
 20
0.0
 30
0.0
  3
*PAPER_SPACE
  1

  0
ENDBLK
  5
9
100
AcDbEntity
 67
     1
  8
0
 62
     1
100
AcDbBlockEnd
  0
BLOCK
  5
21
100
AcDbEntity
  8
0
100
AcDbBlockBegin
  2
_OBLIQUE
 70
     0
 10
0.0
 20
0.0
 30
0.0
  3
_OBLIQUE
  1

  0
LINE
  5
20
100
AcDbEntity
  8
0
  6
BYBLOCK
 62
     0
100
AcDbLine
 10
-0.5
 20
-0.5
 30
0.0
 11
0.5
 21
0.5
 31
0.0
  0
ENDBLK
  5
22
100
AcDbEntity
  8
0
100
AcDbBlockEnd
  0
BLOCK
  5
C4
100
AcDbEntity
  8
0
100
AcDbBlockBegin
  2
EDRI-200_3D
 70
     0
 10
0.0
 20
0.0
 30
0.0
  3
EDRI-200_3D
  1

  0
3DSOLID
  5
92
100
AcDbEntity
  8
VZ1
  6
CONTINUOUS
100
AcDbModelerGeometry
 70
     1
  1
noi kl n o          
  1
=0;& {n {m {rn {rn |
  1
9@=0;&r3(;r>++-6= {rn {l {rn {o |
  1
3*2/ {k {rn {j {o |
  1
-:9@)+r3(;r>++-6= {rn {rn {n {o {i {h |
  1
-:9@)+r3(;r>++-6= {rn {rn {rn {m {i {h |
  1
,7:33 {g {rn {rn {f {m |
  1
-:961:2:1+ {rn o o o o lqihfhhiiigjkgjgk o o o m |
  1
):-+:'@+:2/3>+: {rn l o n g |
  1
-:9@)+r3(;r>++-6= {rn {rn {rn {j {i {h |
  1
9><: {no {nn {nm {j {rn {nl 90-(>-; ,6183: |
  1
99><:r3(;r>++-6= {rn {nk {rn {f |
  1
9><: {nj {ni {nh {j {rn {ng 90-(>-; ,6183: |
  1
300/ {rn {nf {mo {f |
  1
<01:r,*-9><: {rn o konqioooooooooooog o o rn nqglifofjlohlljijf:roni ffqfffffffffffffgi o rgqmikmmlmnglkjjgg:roki n V V o n n V V V V |
  1
-:9@)+r3(;r>++-6= {rn {rn {no {f {i {rn |
  1
99><:r3(;r>++-6= {rn {mn {rn {nn |
  1
9><: {mm {rn {ml {j {rn {mk 90-(>-; ,6183: |
  1
300/ {rn {rn {mj {nn |
  1
/3>1:r,*-9><: {rn o lhm o o rn nqglifofjlohlljijf:roni rnqjffffffffffffffi o nqlmmmhjhnkfljmfkn:rokh n V V V V |
  1
300/ {rn {rn {mi {f |
  1
<0:;8: {mh {mo {mo {mj {mg o {nm {rn |
  1
-:9@)+r3(;r>++-6= {rn {rn {nj {nn {i {rn |
  1
99><:r3(;r>++-6= {rn {mf {rn {ni |
  1
300/ {rn {rn {lo {ni |
  1
/3>1:r,*-9><: {rn o klnqnfffffffffffgm o o n rnqglifofjlohlljijf:roni nqjffffffffffffffi o rnqlmmmhjhnkfljmfkn:rokh n V V V V |
  1
<0:;8: {ln {mj {mj {mo {mg n {nh {rn |
  1
<0:;8: {lm {mi {mi {lo {ll o {nf {rn |
  1
<0/>-r3(;r>++-6= {rn {rn {rn {mo |
  1
:;8: {lk {lj {lj {mj {li o |
  1
-:9@)+r3(;r>++-6= {rn {rn {mm {ni {i {rn |
  1
<0:;8: {lh {lo {lo {mi {ll n {ml {rn |
  1
<0/>-r3(;r>++-6= {rn {rn {rn {mj |
  1
<0/>-r3(;r>++-6= {rn {rn {rn {mi |
  1
:;8: {lg {lf {lf {lo {ko o |
  1
:/>-r3(;r>++-6= {rn {rn {rn {mg |
  1
):-+:' {rn {mg {kn |
  1
:336/,:r<*-): {rn o lhm o o n rnqglifofjlohlljijf:roni ffqfffffffffffffgi o rgqmikmmlmnglkjjgg:roki n V V |
  1
<0/>-r3(;r>++-6= {rn {rn {rn {lo |
  1
:/>-r3(;r>++-6= {rn {rn {rn {ll |
  1
):-+:' {rn {ll {km |
  1
:336/,:r<*-): {rn o klnqnfffffffffffgm o o rn nqglifofjlohlljijf:roni ffqfffffffffffffgi o rgqmikmmlmnglkjjgg:roki n V V |
  1
/061+ {rn noo lhm o |
  1
/061+ {rn noo klnqnfffffffffffgm o |
  0
3DSOLID
  5
93
100
AcDbEntity
  8
VZ1
  6
CONTINUOUS
100
AcDbModelerGeometry
 70
     1
  1
noi kl n o          
  1
=0;& {n {m {rn {rn |
  1
9@=0;&r3(;r>++-6= {rn {l {rn {o |
  1
3*2/ {k {rn {j {o |
  1
-:9@)+r3(;r>++-6= {rn {rn {n {o {i {h |
  1
-:9@)+r3(;r>++-6= {rn {rn {rn {m {i {h |
  1
,7:33 {g {rn {rn {f {m |
  1
-:961:2:1+ {rn o o o o lqihfhhiiigjkgjgk o o o m |
  1
):-+:'@+:2/3>+: {rn l o n g |
  1
-:9@)+r3(;r>++-6= {rn {rn {rn {j {i {h |
  1
9><: {no {nn {nm {j {rn {nl 90-(>-; ,6183: |
  1
99><:r3(;r>++-6= {rn {nk {rn {f |
  1
9><: {nj {ni {nh {j {rn {ng 90-(>-; ,6183: |
  1
300/ {rn {nf {mo {f |
  1
<01:r,*-9><: {rn rjqigklknggiogogonj:ronk rmfqjfffffffffffhgg rjqigklknggiogogonj:ronk o rn nqglifofjlohlljijf:roni ffqfffffffffffffkl o rgqmikmmlmnglkjjgik:roki n V V o n n V V V V |
  1
-:9@)+r3(;r>++-6= {rn {rn {no {f {i {rn |
  1
99><:r3(;r>++-6= {rn {mn {rn {nn |
  1
9><: {mm {rn {ml {j {rn {mk 90-(>-; ,6183: |
  1
300/ {rn {rn {mj {nn |
  1
/3>1:r,*-9><: {rn rjqigklknggiogogonj:ronk rjfqnfffffffffffgin rjqigklknggiogogonj:ronk o rn nqglifofjlohlljijf:roni rnqjffffffffffffffm o nqlmmmhjhnkfljmflf:rokh n V V V V |
  1
300/ {rn {rn {mi {f |
  1
<0:;8: {mh {mo {mo {mj {mg o {nm {rn |
  1
-:9@)+r3(;r>++-6= {rn {rn {nj {nn {i {rn |
  1
99><:r3(;r>++-6= {rn {mf {rn {ni |
  1
300/ {rn {rn {lo {ni |
  1
/3>1:r,*-9><: {rn rjqigklknggiogogonj:ronk o rjqigklknggiogogonj:ronk o n rnqglifofjlohlljijf:roni nqjffffffffffffffm o rnqlmmmhjhnkfljmflf:rokh n V V V V |
  1
<0:;8: {ln {mj {mj {mo {mg n {nh {rn |
  1
<0:;8: {lm {mi {mi {lo {ll o {nf {rn |
  1
<0/>-r3(;r>++-6= {rn {rn {rn {mo |
  1
:;8: {lk {lj {lj {mj {li o |
  1
-:9@)+r3(;r>++-6= {rn {rn {mm {ni {i {rn |
  1
<0:;8: {lh {lo {lo {mi {ll n {ml {rn |
  1
<0/>-r3(;r>++-6= {rn {rn {rn {mj |
  1
<0/>-r3(;r>++-6= {rn {rn {rn {mi |
  1
:;8: {lg {lf {lf {lo {ko o |
  1
:/>-r3(;r>++-6= {rn {rn {rn {mg |
  1
):-+:' {rn {mg {kn |
  1
:336/,:r<*-): {rn rjqigklknggiogogonj:ronk rjfqnfffffffffffgin rjqigklknggiogogonj:ronk o n rnqglifofjlohlljijf:roni ffqfffffffffffffkl o rgqmikmmlmnglkjjgik:roki n V V |
  1
<0/>-r3(;r>++-6= {rn {rn {rn {lo |
  1
:/>-r3(;r>++-6= {rn {rn {rn {ll |
  1
):-+:' {rn {ll {km |
  1
:336/,:r<*-): {rn rjqigklknggiogogonj:ronk o rjqigklknggiogogonj:ronk o rn nqglifofjlohlljijf:roni ffqfffffffffffffkl o rgqmikmmlmnglkjjgik:roki n V V |
  1
/061+ {rn noo rjfqnfffffffffffgin rjqigklknggiogogonj:ronk |
  1
/061+ {rn noo o rjqigklknggiogogonj:ronk |
  0
POLYLINE
  5
94
100
AcDbEntity
  8
VZ1
  6
CONTINUOUS
100
AcDbPolygonMesh
 66
     1
 10
0.0
 20
0.0
 30
0.0
 70
    16
 71
     6
 72
     3
  0
VERTEX
  5
95
100
AcDbEntity
  8
VZ1
  6
CONTINUOUS
100
AcDbVertex
100
AcDbPolygonMeshVertex
 10
207.5
 20
0.0
 30
138.0
 70
    64
  0
VERTEX
  5
96
100
AcDbEntity
  8
VZ1
  6
CONTINUOUS
100
AcDbVertex
100
AcDbPolygonMeshVertex
 10
207.5
 20
0.0
 30
123.0
 70
    64
  0
VERTEX
  5
97
100
AcDbEntity
  8
VZ1
  6
CONTINUOUS
100
AcDbVertex
100
AcDbPolygonMeshVertex
 10
207.5
 20
0.0
 30
123.0
 70
    64
  0
VERTEX
  5
98
100
AcDbEntity
  8
VZ1
  6
CONTINUOUS
100
AcDbVertex
100
AcDbPolygonMeshVertex
 10
-207.5
 20
0.0
 30
138.0
 70
    64
  0
VERTEX
  5
99
100
AcDbEntity
  8
VZ1
  6
CONTINUOUS
100
AcDbVertex
100
AcDbPolygonMeshVertex
 10
-207.5
 20
0.0
 30
123.0
 70
    64
  0
VERTEX
  5
9A
100
AcDbEntity
  8
VZ1
  6
CONTINUOUS
100
AcDbVertex
100
AcDbPolygonMeshVertex
 10
-207.5
 20
0.0
 30
123.0
 70
    64
  0
VERTEX
  5
9B
100
AcDbEntity
  8
VZ1
  6
CONTINUOUS
100
AcDbVertex
100
AcDbPolygonMeshVertex
 10
-207.5
 20
372.0
 30
138.0
 70
    64
  0
VERTEX
  5
9C
100
AcDbEntity
  8
VZ1
  6
CONTINUOUS
100
AcDbVertex
100
AcDbPolygonMeshVertex
 10
-207.5
 20
372.0
 30
123.0
 70
    64
  0
VERTEX
  5
9D
100
AcDbEntity
  8
VZ1
  6
CONTINUOUS
100
AcDbVertex
100
AcDbPolygonMeshVertex
 10
-207.5
 20
0.0
 30
123.0
 70
    64
  0
VERTEX
  5
9E
100
AcDbEntity
  8
VZ1
  6
CONTINUOUS
100
AcDbVertex
100
AcDbPolygonMeshVertex
 10
207.5
 20
372.0
 30
138.0
 70
    64
  0
VERTEX
  5
9F
100
AcDbEntity
  8
VZ1
  6
CONTINUOUS
100
AcDbVertex
100
AcDbPolygonMeshVertex
 10
207.5
 20
372.0
 30
123.0
 70
    64
  0
VERTEX
  5
A0
100
AcDbEntity
  8
VZ1
  6
CONTINUOUS
100
AcDbVertex
100
AcDbPolygonMeshVertex
 10
207.5
 20
0.0
 30
123.0
 70
    64
  0
VERTEX
  5
A1
100
AcDbEntity
  8
VZ1
  6
CONTINUOUS
100
AcDbVertex
100
AcDbPolygonMeshVertex
 10
207.5
 20
372.0
 30
138.0
 70
    64
  0
VERTEX
  5
A2
100
AcDbEntity
  8
VZ1
  6
CONTINUOUS
100
AcDbVertex
100
AcDbPolygonMeshVertex
 10
207.5
 20
372.0
 30
138.0
 70
    64
  0
VERTEX
  5
A3
100
AcDbEntity
  8
VZ1
  6
CONTINUOUS
100
AcDbVertex
100
AcDbPolygonMeshVertex
 10
207.5
 20
0.0
 30
138.0
 70
    64
  0
VERTEX
  5
A4
100
AcDbEntity
  8
VZ1
  6
CONTINUOUS
100
AcDbVertex
100
AcDbPolygonMeshVertex
 10
-207.5
 20
372.0
 30
138.0
 70
    64
  0
VERTEX
  5
A5
100
AcDbEntity
  8
VZ1
  6
CONTINUOUS
100
AcDbVertex
100
AcDbPolygonMeshVertex
 10
-207.5
 20
372.0
 30
138.0
 70
    64
  0
VERTEX
  5
A6
100
AcDbEntity
  8
VZ1
  6
CONTINUOUS
100
AcDbVertex
100
AcDbPolygonMeshVertex
 10
-207.5
 20
0.0
 30
138.0
 70
    64
  0
SEQEND
  5
A7
100
AcDbEntity
  8
VZ1
  6
CONTINUOUS
  0
POLYLINE
  5
A8
100
AcDbEntity
  8
VZ1
  6
CONTINUOUS
100
AcDbPolygonMesh
 66
     1
 10
0.0
 20
0.0
 30
0.0
 70
    16
 71
     6
 72
     3
  0
VERTEX
  5
A9
100
AcDbEntity
  8
VZ1
  6
CONTINUOUS
100
AcDbVertex
100
AcDbPolygonMeshVertex
 10
207.5
 20
0.0
 30
123.0
 70
    64
  0
VERTEX
  5
AA
100
AcDbEntity
  8
VZ1
  6
CONTINUOUS
100
AcDbVertex
100
AcDbPolygonMeshVertex
 10
207.5
 20
0.0
 30
-207.0
 70
    64
  0
VERTEX
  5
AB
100
AcDbEntity
  8
VZ1
  6
CONTINUOUS
100
AcDbVertex
100
AcDbPolygonMeshVertex
 10
207.5
 20
0.0
 30
-207.0
 70
    64
  0
VERTEX
  5
AC
100
AcDbEntity
  8
VZ1
  6
CONTINUOUS
100
AcDbVertex
100
AcDbPolygonMeshVertex
 10
-207.5
 20
0.0
 30
123.0
 70
    64
  0
VERTEX
  5
AD
100
AcDbEntity
  8
VZ1
  6
CONTINUOUS
100
AcDbVertex
100
AcDbPolygonMeshVertex
 10
-207.5
 20
0.0
 30
-207.0
 70
    64
  0
VERTEX
  5
AE
100
AcDbEntity
  8
VZ1
  6
CONTINUOUS
100
AcDbVertex
100
AcDbPolygonMeshVertex
 10
-207.5
 20
0.0
 30
-207.0
 70
    64
  0
VERTEX
  5
AF
100
AcDbEntity
  8
VZ1
  6
CONTINUOUS
100
AcDbVertex
100
AcDbPolygonMeshVertex
 10
-207.5
 20
372.0
 30
123.0
 70
    64
  0
VERTEX
  5
B0
100
AcDbEntity
  8
VZ1
  6
CONTINUOUS
100
AcDbVertex
100
AcDbPolygonMeshVertex
 10
-207.5
 20
372.0
 30
-207.0
 70
    64
  0
VERTEX
  5
B1
100
AcDbEntity
  8
VZ1
  6
CONTINUOUS
100
AcDbVertex
100
AcDbPolygonMeshVertex
 10
-207.5
 20
0.0
 30
-207.0
 70
    64
  0
VERTEX
  5
B2
100
AcDbEntity
  8
VZ1
  6
CONTINUOUS
100
AcDbVertex
100
AcDbPolygonMeshVertex
 10
207.5
 20
372.0
 30
123.0
 70
    64
  0
VERTEX
  5
B3
100
AcDbEntity
  8
VZ1
  6
CONTINUOUS
100
AcDbVertex
100
AcDbPolygonMeshVertex
 10
207.5
 20
372.0
 30
-207.0
 70
    64
  0
VERTEX
  5
B4
100
AcDbEntity
  8
VZ1
  6
CONTINUOUS
100
AcDbVertex
100
AcDbPolygonMeshVertex
 10
207.5
 20
0.0
 30
-207.0
 70
    64
  0
VERTEX
  5
B5
100
AcDbEntity
  8
VZ1
  6
CONTINUOUS
100
AcDbVertex
100
AcDbPolygonMeshVertex
 10
207.5
 20
372.0
 30
123.0
 70
    64
  0
VERTEX
  5
B6
100
AcDbEntity
  8
VZ1
  6
CONTINUOUS
100
AcDbVertex
100
AcDbPolygonMeshVertex
 10
207.5
 20
372.0
 30
123.0
 70
    64
  0
VERTEX
  5
B7
100
AcDbEntity
  8
VZ1
  6
CONTINUOUS
100
AcDbVertex
100
AcDbPolygonMeshVertex
 10
207.5
 20
0.0
 30
123.0
 70
    64
  0
VERTEX
  5
B8
100
AcDbEntity
  8
VZ1
  6
CONTINUOUS
100
AcDbVertex
100
AcDbPolygonMeshVertex
 10
-207.5
 20
372.0
 30
123.0
 70
    64
  0
VERTEX
  5
B9
100
AcDbEntity
  8
VZ1
  6
CONTINUOUS
100
AcDbVertex
100
AcDbPolygonMeshVertex
 10
-207.5
 20
372.0
 30
123.0
 70
    64
  0
VERTEX
  5
BA
100
AcDbEntity
  8
VZ1
  6
CONTINUOUS
100
AcDbVertex
100
AcDbPolygonMeshVertex
 10
-207.5
 20
0.0
 30
123.0
 70
    64
  0
SEQEND
  5
BB
100
AcDbEntity
  8
VZ1
  6
CONTINUOUS
  0
POINT
  5
BC
100
AcDbEntity
  8
VZ1
  6
CONTINUOUS
100
AcDbPoint
 10
0.0
 20
0.0
 30
0.0
  0
LINE
  5
BD
100
AcDbEntity
  8
VZ1
  6
CONTINUOUS
100
AcDbLine
 10
-137.5
 20
0.0
 30
88.0
 11
-137.5
 21
0.0
 31
138.0
210
0.0
220
-1.0
230
-0.0000000000000002
  0
LINE
  5
BE
100
AcDbEntity
  8
VZ1
  6
CONTINUOUS
100
AcDbLine
 10
-157.5
 20
0.0
 30
138.0
 11
-157.5
 21
0.0
 31
88.0
210
0.0
220
-1.0
230
-0.0000000000000002
  0
LINE
  5
BF
100
AcDbEntity
  8
VZ1
  6
CONTINUOUS
100
AcDbLine
 10
-157.5
 20
0.0
 30
88.0
 11
-137.5
 21
0.0
 31
88.0
210
0.0
220
-1.0
230
-0.0000000000000002
  0
POINT
  5
C0
100
AcDbEntity
  8
VZ1
  6
CONTINUOUS
100
AcDbPoint
 10
0.0
 20
372.0
 30
0.0
  0
LINE
  5
C1
100
AcDbEntity
  8
VZ1
  6
CONTINUOUS
100
AcDbLine
 10
157.5
 20
0.0
 30
88.0
 11
137.5
 21
0.0
 31
88.0
210
0.0
220
-1.0
230
-0.0000000000000002
  0
LINE
  5
C2
100
AcDbEntity
  8
VZ1
  6
CONTINUOUS
100
AcDbLine
 10
137.5
 20
0.0
 30
88.0
 11
137.5
 21
0.0
 31
138.0
210
0.0
220
-1.0
230
-0.0000000000000002
  0
LINE
  5
C3
100
AcDbEntity
  8
VZ1
  6
CONTINUOUS
100
AcDbLine
 10
157.5
 20
0.0
 30
138.0
 11
157.5
 21
0.0
 31
88.0
210
0.0
220
-1.0
230
-0.0000000000000002
  0
ENDBLK
  5
C5
100
AcDbEntity
  8
0
100
AcDbBlockEnd
  0
BLOCK
  5
F9
100
AcDbEntity
  8
0
100
AcDbBlockBegin
  2
EDRI-250_3D
 70
     0
 10
0.0
 20
0.0
 30
0.0
  3
EDRI-250_3D
  1

  0
3DSOLID
  5
C7
100
AcDbEntity
  8
VZ1
  6
CONTINUOUS
100
AcDbModelerGeometry
 70
     1
  1
noi kl n o          
  1
=0;& {n {m {rn {rn |
  1
9@=0;&r3(;r>++-6= {rn {l {rn {o |
  1
3*2/ {k {rn {j {o |
  1
-:9@)+r3(;r>++-6= {rn {rn {n {o {i {h |
  1
-:9@)+r3(;r>++-6= {rn {rn {rn {m {i {h |
  1
,7:33 {g {rn {rn {f {m |
  1
-:961:2:1+ {rn o o o o lqihfhhiiigjkgjgk o o o m |
  1
):-+:'@+:2/3>+: {rn l o n g |
  1
-:9@)+r3(;r>++-6= {rn {rn {rn {j {i {h |
  1
9><: {no {nn {nm {j {rn {nl 90-(>-; ,6183: |
  1
99><:r3(;r>++-6= {rn {nk {rn {f |
  1
9><: {nj {ni {nh {j {rn {ng 90-(>-; ,6183: |
  1
300/ {rn {nf {mo {f |
  1
<01:r,*-9><: {rn o rlh o o rn nqglifofjlohlljijf:roni nmkqfffffffffffffl o rnqollomhfommflnfgk:rokj n V V o n n V V V V |
  1
-:9@)+r3(;r>++-6= {rn {rn {no {f {i {rn |
  1
99><:r3(;r>++-6= {rn {mn {rn {nn |
  1
9><: {mm {rn {ml {j {rn {mk 90-(>-; ,6183: |
  1
300/ {rn {rn {mj {nn |
  1
/3>1:r,*-9><: {rn mqgkmnhofklokokooh:ronk rhlqffffffffffffjkj o o rn nqglifofjlohlljijf:roni rnqfffffffffffffffn o nqijmgkkikliifnnhk:rokh n V V V V |
  1
300/ {rn {rn {mi {f |
  1
<0:;8: {mh {mo {mo {mj {mg o {nm {rn |
  1
-:9@)+r3(;r>++-6= {rn {rn {nj {nn {i {rn |
  1
99><:r3(;r>++-6= {rn {mf {rn {ni |
  1
300/ {rn {rn {lo {ni |
  1
/3>1:r,*-9><: {rn o o o o n rnqglifofjlohlljijf:roni nqfffffffffffffffn o rnqijmgkkikliifnnhk:rokh n V V V V |
  1
<0:;8: {ln {mj {mj {mo {mg n {nh {rn |
  1
<0:;8: {lm {mi {mi {lo {ll o {nf {rn |
  1
<0/>-r3(;r>++-6= {rn {rn {rn {mo |
  1
:;8: {lk {lj {lj {mj {li o |
  1
-:9@)+r3(;r>++-6= {rn {rn {mm {ni {i {rn |
  1
<0:;8: {lh {lo {lo {mi {ll n {ml {rn |
  1
<0/>-r3(;r>++-6= {rn {rn {rn {mj |
  1
<0/>-r3(;r>++-6= {rn {rn {rn {mi |
  1
:;8: {lg {lf {lf {lo {ko o |
  1
:/>-r3(;r>++-6= {rn {rn {rn {mg |
  1
):-+:' {rn {mg {kn |
  1
:336/,:r<*-): {rn mqgkmnhofklokokooh:ronk rhlqffffffffffffjkj o o n rnqglifofjlohlljijf:roni nmkqfffffffffffffl o rnqollomhfommflnfgk:rokj n V V |
  1
<0/>-r3(;r>++-6= {rn {rn {rn {lo |
  1
:/>-r3(;r>++-6= {rn {rn {rn {ll |
  1
):-+:' {rn {ll {km |
  1
:336/,:r<*-): {rn o o o o rn nqglifofjlohlljijf:roni nmkqfffffffffffffl o rnqollomhfommflnfgk:rokj n V V |
  1
/061+ {rn nmjqoooooooooooool rhlqffffffffffffjkj o |
  1
/061+ {rn nmjqoooooooooooool o o |
  0
POLYLINE
  5
C8
100
AcDbEntity
  8
VZ1
  6
CONTINUOUS
100
AcDbPolygonMesh
 66
     1
 10
0.0
 20
0.0
 30
0.0
 70
    16
 71
     6
 72
     3
  0
VERTEX
  5
C9
100
AcDbEntity
  8
VZ1
  6
CONTINUOUS
100
AcDbVertex
100
AcDbPolygonMeshVertex
 10
242.5
 20
0.0
 30
171.0
 70
    64
  0
VERTEX
  5
CA
100
AcDbEntity
  8
VZ1
  6
CONTINUOUS
100
AcDbVertex
100
AcDbPolygonMeshVertex
 10
242.5
 20
0.0
 30
156.0
 70
    64
  0
VERTEX
  5
CB
100
AcDbEntity
  8
VZ1
  6
CONTINUOUS
100
AcDbVertex
100
AcDbPolygonMeshVertex
 10
242.5
 20
0.0
 30
156.0
 70
    64
  0
VERTEX
  5
CC
100
AcDbEntity
  8
VZ1
  6
CONTINUOUS
100
AcDbVertex
100
AcDbPolygonMeshVertex
 10
-242.5
 20
0.0
 30
171.0
 70
    64
  0
VERTEX
  5
CD
100
AcDbEntity
  8
VZ1
  6
CONTINUOUS
100
AcDbVertex
100
AcDbPolygonMeshVertex
 10
-242.5
 20
0.0
 30
156.0
 70
    64
  0
VERTEX
  5
CE
100
AcDbEntity
  8
VZ1
  6
CONTINUOUS
100
AcDbVertex
100
AcDbPolygonMeshVertex
 10
-242.5
 20
0.0
 30
156.0
 70
    64
  0
VERTEX
  5
CF
100
AcDbEntity
  8
VZ1
  6
CONTINUOUS
100
AcDbVertex
100
AcDbPolygonMeshVertex
 10
-242.5
 20
372.0
 30
171.0
 70
    64
  0
VERTEX
  5
D0
100
AcDbEntity
  8
VZ1
  6
CONTINUOUS
100
AcDbVertex
100
AcDbPolygonMeshVertex
 10
-242.5
 20
372.0
 30
156.0
 70
    64
  0
VERTEX
  5
D1
100
AcDbEntity
  8
VZ1
  6
CONTINUOUS
100
AcDbVertex
100
AcDbPolygonMeshVertex
 10
-242.5
 20
0.0
 30
156.0
 70
    64
  0
VERTEX
  5
D2
100
AcDbEntity
  8
VZ1
  6
CONTINUOUS
100
AcDbVertex
100
AcDbPolygonMeshVertex
 10
242.5
 20
372.0
 30
171.0
 70
    64
  0
VERTEX
  5
D3
100
AcDbEntity
  8
VZ1
  6
CONTINUOUS
100
AcDbVertex
100
AcDbPolygonMeshVertex
 10
242.5
 20
372.0
 30
156.0
 70
    64
  0
VERTEX
  5
D4
100
AcDbEntity
  8
VZ1
  6
CONTINUOUS
100
AcDbVertex
100
AcDbPolygonMeshVertex
 10
242.5
 20
0.0
 30
156.0
 70
    64
  0
VERTEX
  5
D5
100
AcDbEntity
  8
VZ1
  6
CONTINUOUS
100
AcDbVertex
100
AcDbPolygonMeshVertex
 10
242.5
 20
372.0
 30
171.0
 70
    64
  0
VERTEX
  5
D6
100
AcDbEntity
  8
VZ1
  6
CONTINUOUS
100
AcDbVertex
100
AcDbPolygonMeshVertex
 10
242.5
 20
372.0
 30
171.0
 70
    64
  0
VERTEX
  5
D7
100
AcDbEntity
  8
VZ1
  6
CONTINUOUS
100
AcDbVertex
100
AcDbPolygonMeshVertex
 10
242.5
 20
0.0
 30
171.0
 70
    64
  0
VERTEX
  5
D8
100
AcDbEntity
  8
VZ1
  6
CONTINUOUS
100
AcDbVertex
100
AcDbPolygonMeshVertex
 10
-242.5
 20
372.0
 30
171.0
 70
    64
  0
VERTEX
  5
D9
100
AcDbEntity
  8
VZ1
  6
CONTINUOUS
100
AcDbVertex
100
AcDbPolygonMeshVertex
 10
-242.5
 20
372.0
 30
171.0
 70
    64
  0
VERTEX
  5
DA
100
AcDbEntity
  8
VZ1
  6
CONTINUOUS
100
AcDbVertex
100
AcDbPolygonMeshVertex
 10
-242.5
 20
0.0
 30
171.0
 70
    64
  0
SEQEND
  5
DB
100
AcDbEntity
  8
VZ1
  6
CONTINUOUS
  0
POLYLINE
  5
DC
100
AcDbEntity
  8
VZ1
  6
CONTINUOUS
100
AcDbPolygonMesh
 66
     1
 10
0.0
 20
0.0
 30
0.0
 70
    16
 71
     6
 72
     3
  0
VERTEX
  5
DD
100
AcDbEntity
  8
VZ1
  6
CONTINUOUS
100
AcDbVertex
100
AcDbPolygonMeshVertex
 10
242.5
 20
0.0
 30
156.0
 70
    64
  0
VERTEX
  5
DE
100
AcDbEntity
  8
VZ1
  6
CONTINUOUS
100
AcDbVertex
100
AcDbPolygonMeshVertex
 10
242.5
 20
0.0
 30
-210.0
 70
    64
  0
VERTEX
  5
DF
100
AcDbEntity
  8
VZ1
  6
CONTINUOUS
100
AcDbVertex
100
AcDbPolygonMeshVertex
 10
242.5
 20
0.0
 30
-210.0
 70
    64
  0
VERTEX
  5
E0
100
AcDbEntity
  8
VZ1
  6
CONTINUOUS
100
AcDbVertex
100
AcDbPolygonMeshVertex
 10
-242.5
 20
0.0
 30
156.0
 70
    64
  0
VERTEX
  5
E1
100
AcDbEntity
  8
VZ1
  6
CONTINUOUS
100
AcDbVertex
100
AcDbPolygonMeshVertex
 10
-242.5
 20
0.0
 30
-210.0
 70
    64
  0
VERTEX
  5
E2
100
AcDbEntity
  8
VZ1
  6
CONTINUOUS
100
AcDbVertex
100
AcDbPolygonMeshVertex
 10
-242.5
 20
0.0
 30
-210.0
 70
    64
  0
VERTEX
  5
E3
100
AcDbEntity
  8
VZ1
  6
CONTINUOUS
100
AcDbVertex
100
AcDbPolygonMeshVertex
 10
-242.5
 20
372.0
 30
156.0
 70
    64
  0
VERTEX
  5
E4
100
AcDbEntity
  8
VZ1
  6
CONTINUOUS
100
AcDbVertex
100
AcDbPolygonMeshVertex
 10
-242.5
 20
372.0
 30
-210.0
 70
    64
  0
VERTEX
  5
E5
100
AcDbEntity
  8
VZ1
  6
CONTINUOUS
100
AcDbVertex
100
AcDbPolygonMeshVertex
 10
-242.5
 20
0.0
 30
-210.0
 70
    64
  0
VERTEX
  5
E6
100
AcDbEntity
  8
VZ1
  6
CONTINUOUS
100
AcDbVertex
100
AcDbPolygonMeshVertex
 10
242.5
 20
372.0
 30
156.0
 70
    64
  0
VERTEX
  5
E7
100
AcDbEntity
  8
VZ1
  6
CONTINUOUS
100
AcDbVertex
100
AcDbPolygonMeshVertex
 10
242.5
 20
372.0
 30
-210.0
 70
    64
  0
VERTEX
  5
E8
100
AcDbEntity
  8
VZ1
  6
CONTINUOUS
100
AcDbVertex
100
AcDbPolygonMeshVertex
 10
242.5
 20
0.0
 30
-210.0
 70
    64
  0
VERTEX
  5
E9
100
AcDbEntity
  8
VZ1
  6
CONTINUOUS
100
AcDbVertex
100
AcDbPolygonMeshVertex
 10
242.5
 20
372.0
 30
156.0
 70
    64
  0
VERTEX
  5
EA
100
AcDbEntity
  8
VZ1
  6
CONTINUOUS
100
AcDbVertex
100
AcDbPolygonMeshVertex
 10
242.5
 20
372.0
 30
156.0
 70
    64
  0
VERTEX
  5
EB
100
AcDbEntity
  8
VZ1
  6
CONTINUOUS
100
AcDbVertex
100
AcDbPolygonMeshVertex
 10
242.5
 20
0.0
 30
156.0
 70
    64
  0
VERTEX
  5
EC
100
AcDbEntity
  8
VZ1
  6
CONTINUOUS
100
AcDbVertex
100
AcDbPolygonMeshVertex
 10
-242.5
 20
372.0
 30
156.0
 70
    64
  0
VERTEX
  5
ED
100
AcDbEntity
  8
VZ1
  6
CONTINUOUS
100
AcDbVertex
100
AcDbPolygonMeshVertex
 10
-242.5
 20
372.0
 30
156.0
 70
    64
  0
VERTEX
  5
EE
100
AcDbEntity
  8
VZ1
  6
CONTINUOUS
100
AcDbVertex
100
AcDbPolygonMeshVertex
 10
-242.5
 20
0.0
 30
156.0
 70
    64
  0
SEQEND
  5
EF
100
AcDbEntity
  8
VZ1
  6
CONTINUOUS
  0
3DSOLID
  5
F0
100
AcDbEntity
  8
VZ1
  6
CONTINUOUS
100
AcDbModelerGeometry
 70
     1
  1
noi kl n o          
  1
=0;& {n {m {rn {rn |
  1
9@=0;&r3(;r>++-6= {rn {l {rn {o |
  1
3*2/ {k {rn {j {o |
  1
-:9@)+r3(;r>++-6= {rn {rn {n {o {i {h |
  1
-:9@)+r3(;r>++-6= {rn {rn {rn {m {i {h |
  1
,7:33 {g {rn {rn {f {m |
  1
-:961:2:1+ {rn o o o o lqihfhhiiigjkgjgk o o o m |
  1
):-+:'@+:2/3>+: {rn l o n g |
  1
-:9@)+r3(;r>++-6= {rn {rn {rn {j {i {h |
  1
9><: {no {nn {nm {j {rn {nl 90-(>-; ,6183: |
  1
99><:r3(;r>++-6= {rn {nk {rn {f |
  1
9><: {nj {ni {nh {j {rn {ng 90-(>-; ,6183: |
  1
300/ {rn {nf {mo {f |
  1
<01:r,*-9><: {rn o kof o o rn nqglifofjlohlljijf:roni nmkqffffffffffffff o rnqollomhfommflnfgj:rokj n V V o n n V V V V |
  1
-:9@)+r3(;r>++-6= {rn {rn {no {f {i {rn |
  1
99><:r3(;r>++-6= {rn {mn {rn {nn |
  1
9><: {mm {rn {ml {j {rn {mk 90-(>-; ,6183: |
  1
300/ {rn {rn {mj {nn |
  1
/3>1:r,*-9><: {rn mqgkmnhofklokokooh:ronk lhm o o rn nqglifofjlohlljijf:roni rnqfffffffffffffffi o nqijmgkkikliifnnhh:rokh n V V V V |
  1
300/ {rn {rn {mi {f |
  1
<0:;8: {mh {mo {mo {mj {mg o {nm {rn |
  1
-:9@)+r3(;r>++-6= {rn {rn {nj {nn {i {rn |
  1
99><:r3(;r>++-6= {rn {mf {rn {ni |
  1
300/ {rn {rn {lo {ni |
  1
/3>1:r,*-9><: {rn o kkjqffffffffffffjj o o n rnqglifofjlohlljijf:roni nqfffffffffffffffi o rnqijmgkkikliifnnhh:rokh n V V V V |
  1
<0:;8: {ln {mj {mj {mo {mg n {nh {rn |
  1
<0:;8: {lm {mi {mi {lo {ll o {nf {rn |
  1
<0/>-r3(;r>++-6= {rn {rn {rn {mo |
  1
:;8: {lk {lj {lj {mj {li o |
  1
-:9@)+r3(;r>++-6= {rn {rn {mm {ni {i {rn |
  1
<0:;8: {lh {lo {lo {mi {ll n {ml {rn |
  1
<0/>-r3(;r>++-6= {rn {rn {rn {mj |
  1
<0/>-r3(;r>++-6= {rn {rn {rn {mi |
  1
:;8: {lg {lf {lf {lo {ko o |
  1
:/>-r3(;r>++-6= {rn {rn {rn {mg |
  1
):-+:' {rn {mg {kn |
  1
:336/,:r<*-): {rn mqgkmnhofklokokooh:ronk lhm o o n rnqglifofjlohlljijf:roni nmkqffffffffffffff o rnqollomhfommflnfgj:rokj n V V |
  1
<0/>-r3(;r>++-6= {rn {rn {rn {lo |
  1
:/>-r3(;r>++-6= {rn {rn {rn {ll |
  1
):-+:' {rn {ll {km |
  1
:336/,:r<*-): {rn o kkjqffffffffffffjj o o rn nqglifofjlohlljijf:roni nmkqffffffffffffff o rnqollomhfommflnfgj:rokj n V V |
  1
/061+ {rn nmjqoooooooooooool lhm o |
  1
/061+ {rn nmjqoooooooooooool kkjqffffffffffffjj o |
  0
LINE
  5
F1
100
AcDbEntity
  8
VZ1
  6
CONTINUOUS
100
AcDbLine
 10
-242.5
 20
372.0
 30
-210.0
 11
-242.5
 21
372.0
 31
0.0
  0
LINE
  5
F2
100
AcDbEntity
  8
VZ1
  6
CONTINUOUS
100
AcDbLine
 10
-242.5
 20
0.0
 30
-210.0
 11
-242.5
 21
0.0
 31
0.0
  0
LINE
  5
F3
100
AcDbEntity
  8
VZ1
  6
CONTINUOUS
100
AcDbLine
 10
-137.5
 20
0.0
 30
121.0
 11
-137.5
 21
0.0
 31
171.0
210
0.0
220
-1.0
230
-0.0000000000000002
  0
LINE
  5
F4
100
AcDbEntity
  8
VZ1
  6
CONTINUOUS
100
AcDbLine
 10
-157.5
 20
0.0
 30
171.0
 11
-157.5
 21
0.0
 31
121.0
210
0.0
220
-1.0
230
-0.0000000000000002
  0
LINE
  5
F5
100
AcDbEntity
  8
VZ1
  6
CONTINUOUS
100
AcDbLine
 10
-157.5
 20
0.0
 30
121.0
 11
-137.5
 21
0.0
 31
121.0
210
0.0
220
-1.0
230
-0.0000000000000002
  0
LINE
  5
F6
100
AcDbEntity
  8
VZ1
  6
CONTINUOUS
100
AcDbLine
 10
157.5
 20
0.0
 30
121.0
 11
137.5
 21
0.0
 31
121.0
210
0.0
220
-1.0
230
-0.0000000000000002
  0
LINE
  5
F7
100
AcDbEntity
  8
VZ1
  6
CONTINUOUS
100
AcDbLine
 10
137.5
 20
0.0
 30
121.0
 11
137.5
 21
0.0
 31
171.0
210
0.0
220
-1.0
230
-0.0000000000000002
  0
LINE
  5
F8
100
AcDbEntity
  8
VZ1
  6
CONTINUOUS
100
AcDbLine
 10
157.5
 20
0.0
 30
171.0
 11
157.5
 21
0.0
 31
121.0
210
0.0
220
-1.0
230
-0.0000000000000002
  0
ENDBLK
  5
FA
100
AcDbEntity
  8
0
100
AcDbBlockEnd
  0
BLOCK
  5
12D
100
AcDbEntity
  8
0
100
AcDbBlockBegin
  2
EDRI-315_3D
 70
     0
 10
0.0
 20
0.0
 30
0.0
  3
EDRI-315_3D
  1

  0
3DSOLID
  5
FC
100
AcDbEntity
  8
VZ1
  6
CONTINUOUS
100
AcDbModelerGeometry
 70
     1
  1
noi kl n o          
  1
=0;& {n {m {rn {rn |
  1
9@=0;&r3(;r>++-6= {rn {l {rn {o |
  1
3*2/ {k {rn {j {o |
  1
-:9@)+r3(;r>++-6= {rn {rn {n {o {i {h |
  1
-:9@)+r3(;r>++-6= {rn {rn {rn {m {i {h |
  1
,7:33 {g {rn {rn {f {m |
  1
-:961:2:1+ {rn o o o o lqihfhhiiigjkgjgk o o o m |
  1
):-+:'@+:2/3>+: {rn l o n g |
  1
-:9@)+r3(;r>++-6= {rn {rn {rn {j {i {h |
  1
9><: {no {nn {nm {j {rn {nl 90-(>-; ,6183: |
  1
99><:r3(;r>++-6= {rn {nk {rn {f |
  1
9><: {nj {ni {nh {j {rn {ng 90-(>-; ,6183: |
  1
300/ {rn {nf {mo {f |
  1
<01:r,*-9><: {rn o rkiqinffffffffffkli o o rn nqglifofjlohlljijf:roni njhqkffffffffffffh o rnqloninjnjiggfklom:rokj n V V o n n V V V V |
  1
-:9@)+r3(;r>++-6= {rn {rn {no {f {i {rn |
  1
99><:r3(;r>++-6= {rn {mn {rn {nn |
  1
9><: {mm {rn {ml {j {rn {mk 90-(>-; ,6183: |
  1
300/ {rn {rn {mj {nn |
  1
/3>1:r,*-9><: {rn nqnligiglhhmniniol:ronl rflqmlfffffffffflmh o o rn nqglifofjlohlljijf:roni rmqjnfffffffffffffi o mqogmjgkmjnomloggl:rokh n V V V V |
  1
300/ {rn {rn {mi {f |
  1
<0:;8: {mh {mo {mo {mj {mg o {nm {rn |
  1
-:9@)+r3(;r>++-6= {rn {rn {nj {nn {i {rn |
  1
99><:r3(;r>++-6= {rn {mf {rn {ni |
  1
300/ {rn {rn {lo {ni |
  1
/3>1:r,*-9><: {rn o o o o n rnqglifofjlohlljijf:roni mqjnfffffffffffffi o rmqogmjgkmjnomloggl:rokh n V V V V |
  1
<0:;8: {ln {mj {mj {mo {mg n {nh {rn |
  1
<0:;8: {lm {mi {mi {lo {ll o {nf {rn |
  1
<0/>-r3(;r>++-6= {rn {rn {rn {mo |
  1
:;8: {lk {lj {lj {mj {li o |
  1
-:9@)+r3(;r>++-6= {rn {rn {mm {ni {i {rn |
  1
<0:;8: {lh {lo {lo {mi {ll n {ml {rn |
  1
<0/>-r3(;r>++-6= {rn {rn {rn {mj |
  1
<0/>-r3(;r>++-6= {rn {rn {rn {mi |
  1
:;8: {lg {lf {lf {lo {ko o |
  1
:/>-r3(;r>++-6= {rn {rn {rn {mg |
  1
):-+:' {rn {mg {kn |
  1
:336/,:r<*-): {rn nqnligiglhhmniniol:ronl rflqmlfffffffffflmh o o n rnqglifofjlohlljijf:roni njhqkffffffffffffh o rnqloninjnjiggfklom:rokj n V V |
  1
<0/>-r3(;r>++-6= {rn {rn {rn {lo |
  1
:/>-r3(;r>++-6= {rn {rn {rn {ll |
  1
):-+:' {rn {ll {km |
  1
:336/,:r<*-): {rn o o o o rn nqglifofjlohlljijf:roni njhqkffffffffffffh o rnqloninjnjiggfklom:rokj n V V |
  1
/061+ {rn njhqj rflqmlfffffffffflmh o |
  1
/061+ {rn njhqj o o |
  0
LINE
  5
FD
100
AcDbEntity
  8
VZ1
  6
CONTINUOUS
100
AcDbLine
 10
-152.5
 20
0.0
 30
218.0
 11
152.5
 21
0.0
 31
218.0
  0
POLYLINE
  5
FE
100
AcDbEntity
  8
VZ1
  6
CONTINUOUS
100
AcDbPolygonMesh
 66
     1
 10
0.0
 20
0.0
 30
0.0
 70
    16
 71
     6
 72
     3
  0
VERTEX
  5
FF
100
AcDbEntity
  8
VZ1
  6
CONTINUOUS
100
AcDbVertex
100
AcDbPolygonMeshVertex
 10
270.0
 20
0.0
 30
218.0
 70
    64
  0
VERTEX
  5
100
100
AcDbEntity
  8
VZ1
  6
CONTINUOUS
100
AcDbVertex
100
AcDbPolygonMeshVertex
 10
270.0
 20
0.0
 30
203.0
 70
    64
  0
VERTEX
  5
101
100
AcDbEntity
  8
VZ1
  6
CONTINUOUS
100
AcDbVertex
100
AcDbPolygonMeshVertex
 10
270.0
 20
0.0
 30
203.0
 70
    64
  0
VERTEX
  5
102
100
AcDbEntity
  8
VZ1
  6
CONTINUOUS
100
AcDbVertex
100
AcDbPolygonMeshVertex
 10
-270.0
 20
0.0
 30
218.0
 70
    64
  0
VERTEX
  5
103
100
AcDbEntity
  8
VZ1
  6
CONTINUOUS
100
AcDbVertex
100
AcDbPolygonMeshVertex
 10
-270.0
 20
0.0
 30
203.0
 70
    64
  0
VERTEX
  5
104
100
AcDbEntity
  8
VZ1
  6
CONTINUOUS
100
AcDbVertex
100
AcDbPolygonMeshVertex
 10
-270.0
 20
0.0
 30
203.0
 70
    64
  0
VERTEX
  5
105
100
AcDbEntity
  8
VZ1
  6
CONTINUOUS
100
AcDbVertex
100
AcDbPolygonMeshVertex
 10
-270.0
 20
540.0
 30
218.0
 70
    64
  0
VERTEX
  5
106
100
AcDbEntity
  8
VZ1
  6
CONTINUOUS
100
AcDbVertex
100
AcDbPolygonMeshVertex
 10
-270.0
 20
540.0
 30
203.0
 70
    64
  0
VERTEX
  5
107
100
AcDbEntity
  8
VZ1
  6
CONTINUOUS
100
AcDbVertex
100
AcDbPolygonMeshVertex
 10
-270.0
 20
0.0
 30
203.0
 70
    64
  0
VERTEX
  5
108
100
AcDbEntity
  8
VZ1
  6
CONTINUOUS
100
AcDbVertex
100
AcDbPolygonMeshVertex
 10
270.0
 20
540.0
 30
218.0
 70
    64
  0
VERTEX
  5
109
100
AcDbEntity
  8
VZ1
  6
CONTINUOUS
100
AcDbVertex
100
AcDbPolygonMeshVertex
 10
270.0
 20
540.0
 30
203.0
 70
    64
  0
VERTEX
  5
10A
100
AcDbEntity
  8
VZ1
  6
CONTINUOUS
100
AcDbVertex
100
AcDbPolygonMeshVertex
 10
270.0
 20
0.0
 30
203.0
 70
    64
  0
VERTEX
  5
10B
100
AcDbEntity
  8
VZ1
  6
CONTINUOUS
100
AcDbVertex
100
AcDbPolygonMeshVertex
 10
270.0
 20
540.0
 30
218.0
 70
    64
  0
VERTEX
  5
10C
100
AcDbEntity
  8
VZ1
  6
CONTINUOUS
100
AcDbVertex
100
AcDbPolygonMeshVertex
 10
270.0
 20
540.0
 30
218.0
 70
    64
  0
VERTEX
  5
10D
100
AcDbEntity
  8
VZ1
  6
CONTINUOUS
100
AcDbVertex
100
AcDbPolygonMeshVertex
 10
270.0
 20
0.0
 30
218.0
 70
    64
  0
VERTEX
  5
10E
100
AcDbEntity
  8
VZ1
  6
CONTINUOUS
100
AcDbVertex
100
AcDbPolygonMeshVertex
 10
-270.0
 20
540.0
 30
218.0
 70
    64
  0
VERTEX
  5
10F
100
AcDbEntity
  8
VZ1
  6
CONTINUOUS
100
AcDbVertex
100
AcDbPolygonMeshVertex
 10
-270.0
 20
540.0
 30
218.0
 70
    64
  0
VERTEX
  5
110
100
AcDbEntity
  8
VZ1
  6
CONTINUOUS
100
AcDbVertex
100
AcDbPolygonMeshVertex
 10
-270.0
 20
0.0
 30
218.0
 70
    64
  0
SEQEND
  5
111
100
AcDbEntity
  8
VZ1
  6
CONTINUOUS
  0
POLYLINE
  5
112
100
AcDbEntity
  8
VZ1
  6
CONTINUOUS
100
AcDbPolygonMesh
 66
     1
 10
0.0
 20
0.0
 30
0.0
 70
    16
 71
     6
 72
     3
  0
VERTEX
  5
113
100
AcDbEntity
  8
VZ1
  6
CONTINUOUS
100
AcDbVertex
100
AcDbPolygonMeshVertex
 10
270.0
 20
0.0
 30
203.0
 70
    64
  0
VERTEX
  5
114
100
AcDbEntity
  8
VZ1
  6
CONTINUOUS
100
AcDbVertex
100
AcDbPolygonMeshVertex
 10
270.0
 20
0.0
 30
-326.5
 70
    64
  0
VERTEX
  5
115
100
AcDbEntity
  8
VZ1
  6
CONTINUOUS
100
AcDbVertex
100
AcDbPolygonMeshVertex
 10
270.0
 20
0.0
 30
-326.5
 70
    64
  0
VERTEX
  5
116
100
AcDbEntity
  8
VZ1
  6
CONTINUOUS
100
AcDbVertex
100
AcDbPolygonMeshVertex
 10
-270.0
 20
0.0
 30
203.0
 70
    64
  0
VERTEX
  5
117
100
AcDbEntity
  8
VZ1
  6
CONTINUOUS
100
AcDbVertex
100
AcDbPolygonMeshVertex
 10
-270.0
 20
0.0
 30
-326.5
 70
    64
  0
VERTEX
  5
118
100
AcDbEntity
  8
VZ1
  6
CONTINUOUS
100
AcDbVertex
100
AcDbPolygonMeshVertex
 10
-270.0
 20
0.0
 30
-326.5
 70
    64
  0
VERTEX
  5
119
100
AcDbEntity
  8
VZ1
  6
CONTINUOUS
100
AcDbVertex
100
AcDbPolygonMeshVertex
 10
-270.0
 20
540.0
 30
203.0
 70
    64
  0
VERTEX
  5
11A
100
AcDbEntity
  8
VZ1
  6
CONTINUOUS
100
AcDbVertex
100
AcDbPolygonMeshVertex
 10
-270.0
 20
540.0
 30
-326.5
 70
    64
  0
VERTEX
  5
11B
100
AcDbEntity
  8
VZ1
  6
CONTINUOUS
100
AcDbVertex
100
AcDbPolygonMeshVertex
 10
-270.0
 20
0.0
 30
-326.5
 70
    64
  0
VERTEX
  5
11C
100
AcDbEntity
  8
VZ1
  6
CONTINUOUS
100
AcDbVertex
100
AcDbPolygonMeshVertex
 10
270.0
 20
540.0
 30
203.0
 70
    64
  0
VERTEX
  5
11D
100
AcDbEntity
  8
VZ1
  6
CONTINUOUS
100
AcDbVertex
100
AcDbPolygonMeshVertex
 10
270.0
 20
540.0
 30
-326.5
 70
    64
  0
VERTEX
  5
11E
100
AcDbEntity
  8
VZ1
  6
CONTINUOUS
100
AcDbVertex
100
AcDbPolygonMeshVertex
 10
270.0
 20
0.0
 30
-326.5
 70
    64
  0
VERTEX
  5
11F
100
AcDbEntity
  8
VZ1
  6
CONTINUOUS
100
AcDbVertex
100
AcDbPolygonMeshVertex
 10
270.0
 20
540.0
 30
203.0
 70
    64
  0
VERTEX
  5
120
100
AcDbEntity
  8
VZ1
  6
CONTINUOUS
100
AcDbVertex
100
AcDbPolygonMeshVertex
 10
270.0
 20
540.0
 30
203.0
 70
    64
  0
VERTEX
  5
121
100
AcDbEntity
  8
VZ1
  6
CONTINUOUS
100
AcDbVertex
100
AcDbPolygonMeshVertex
 10
270.0
 20
0.0
 30
203.0
 70
    64
  0
VERTEX
  5
122
100
AcDbEntity
  8
VZ1
  6
CONTINUOUS
100
AcDbVertex
100
AcDbPolygonMeshVertex
 10
-270.0
 20
540.0
 30
203.0
 70
    64
  0
VERTEX
  5
123
100
AcDbEntity
  8
VZ1
  6
CONTINUOUS
100
AcDbVertex
100
AcDbPolygonMeshVertex
 10
-270.0
 20
540.0
 30
203.0
 70
    64
  0
VERTEX
  5
124
100
AcDbEntity
  8
VZ1
  6
CONTINUOUS
100
AcDbVertex
100
AcDbPolygonMeshVertex
 10
-270.0
 20
0.0
 30
203.0
 70
    64
  0
SEQEND
  5
125
100
AcDbEntity
  8
VZ1
  6
CONTINUOUS
  0
3DSOLID
  5
126
100
AcDbEntity
  8
VZ1
  6
CONTINUOUS
100
AcDbModelerGeometry
 70
     1
  1
noi kl n o          
  1
=0;& {n {m {rn {rn |
  1
9@=0;&r3(;r>++-6= {rn {l {rn {o |
  1
3*2/ {k {rn {j {o |
  1
-:9@)+r3(;r>++-6= {rn {rn {n {o {i {h |
  1
-:9@)+r3(;r>++-6= {rn {rn {rn {m {i {h |
  1
,7:33 {g {rn {rn {f {m |
  1
-:961:2:1+ {rn o o o o lqihfhhiiigjkgjgk o o o m |
  1
):-+:'@+:2/3>+: {rn l o n g |
  1
-:9@)+r3(;r>++-6= {rn {rn {rn {j {i {h |
  1
9><: {no {nn {nm {j {rn {nl 90-(>-; ,6183: |
  1
99><:r3(;r>++-6= {rn {nk {rn {f |
  1
9><: {nj {ni {nh {j {rn {ng 90-(>-; ,6183: |
  1
300/ {rn {nf {mo {f |
  1
<01:r,*-9><: {rn o jgiqinffffffffffkk o o rn nqglifofjlohlljijf:roni njhqkffffffffffffn o rnqloninjnjiggfkl:rokj n V V o n n V V V V |
  1
-:9@)+r3(;r>++-6= {rn {rn {no {f {i {rn |
  1
99><:r3(;r>++-6= {rn {mn {rn {nn |
  1
9><: {mm {rn {ml {j {rn {mk 90-(>-; ,6183: |
  1
300/ {rn {rn {mj {nn |
  1
/3>1:r,*-9><: {rn o jko o o rn nqglifofjlohlljijf:roni rmqjnffffffffffffgh o mqogmjgkmjnomloggn:rokh n V V V V |
  1
300/ {rn {rn {mi {f |
  1
<0:;8: {mh {mo {mo {mj {mg o {nm {rn |
  1
-:9@)+r3(;r>++-6= {rn {rn {nj {nn {i {rn |
  1
99><:r3(;r>++-6= {rn {mf {rn {ni |
  1
300/ {rn {rn {lo {ni |
  1
/3>1:r,*-9><: {rn o illqmlffffffffffll o o n rnqglifofjlohlljijf:roni mqjnffffffffffffgh o rmqogmjgkmjnomloggn:rokh n V V V V |
  1
<0:;8: {ln {mj {mj {mo {mg n {nh {rn |
  1
<0:;8: {lm {mi {mi {lo {ll o {nf {rn |
  1
<0/>-r3(;r>++-6= {rn {rn {rn {mo |
  1
:;8: {lk {lj {lj {mj {li o |
  1
-:9@)+r3(;r>++-6= {rn {rn {mm {ni {i {rn |
  1
<0:;8: {lh {lo {lo {mi {ll n {ml {rn |
  1
<0/>-r3(;r>++-6= {rn {rn {rn {mj |
  1
<0/>-r3(;r>++-6= {rn {rn {rn {mi |
  1
:;8: {lg {lf {lf {lo {ko o |
  1
:/>-r3(;r>++-6= {rn {rn {rn {mg |
  1
):-+:' {rn {mg {kn |
  1
:336/,:r<*-): {rn o jko o o n rnqglifofjlohlljijf:roni njhqkffffffffffffn o rnqloninjnjiggfkl:rokj n V V |
  1
<0/>-r3(;r>++-6= {rn {rn {rn {lo |
  1
:/>-r3(;r>++-6= {rn {rn {rn {ll |
  1
):-+:' {rn {ll {km |
  1
:336/,:r<*-): {rn o illqmlffffffffffll o o rn nqglifofjlohlljijf:roni njhqkffffffffffffn o rnqloninjnjiggfkl:rokj n V V |
  1
/061+ {rn njhqj jko o |
  1
/061+ {rn njhqj illqmlffffffffffll o |
  0
LINE
  5
127
100
AcDbEntity
  8
VZ1
  6
CONTINUOUS
100
AcDbLine
 10
-172.5
 20
0.0
 30
168.0
 11
-152.5
 21
0.0
 31
168.0
210
0.0
220
-1.0
230
-0.0000000000000002
  0
LINE
  5
128
100
AcDbEntity
  8
VZ1
  6
CONTINUOUS
100
AcDbLine
 10
-172.5
 20
0.0
 30
218.0
 11
-172.5
 21
0.0
 31
168.0
210
0.0
220
-1.0
230
-0.0000000000000002
  0
LINE
  5
129
100
AcDbEntity
  8
VZ1
  6
CONTINUOUS
100
AcDbLine
 10
-152.5
 20
0.0
 30
168.0
 11
-152.5
 21
0.0
 31
218.0
210
0.0
220
-1.0
230
-0.0000000000000002
  0
LINE
  5
12A
100
AcDbEntity
  8
VZ1
  6
CONTINUOUS
100
AcDbLine
 10
172.5
 20
0.0
 30
168.0
 11
152.5
 21
0.0
 31
168.0
210
0.0
220
-1.0
230
-0.0000000000000002
  0
LINE
  5
12B
100
AcDbEntity
  8
VZ1
  6
CONTINUOUS
100
AcDbLine
 10
152.5
 20
0.0
 30
168.0
 11
152.5
 21
0.0
 31
218.0
210
0.0
220
-1.0
230
-0.0000000000000002
  0
LINE
  5
12C
100
AcDbEntity
  8
VZ1
  6
CONTINUOUS
100
AcDbLine
 10
172.5
 20
0.0
 30
218.0
 11
172.5
 21
0.0
 31
168.0
210
0.0
220
-1.0
230
-0.0000000000000002
  0
ENDBLK
  5
12E
100
AcDbEntity
  8
0
100
AcDbBlockEnd
  0
BLOCK
  5
132
100
AcDbEntity
  8
0
100
AcDbBlockBegin
  2
183233_3D
 70
     0
 10
0.0
 20
0.0
 30
0.0
  3
183233_3D
  1

  0
INSERT
  5
131
100
AcDbEntity
  8
VZ1
  6
CONTINUOUS
100
AcDbBlockReference
  2
EDRI-315_3D
 10
0.0
 20
0.0
 30
0.0
  0
ENDBLK
  5
133
100
AcDbEntity
  8
0
100
AcDbBlockEnd
  0
BLOCK
  5
1C8
100
AcDbEntity
  8
0
100
AcDbBlockBegin
  2
EDRI-355_3D
 70
     0
 10
0.0
 20
0.0
 30
0.0
  3
EDRI-355_3D
  1

  0
LINE
  5
196
100
AcDbEntity
  8
VZ1
  6
CONTINUOUS
100
AcDbLine
 10
-270.0
 20
540.0
 30
-326.5
 11
-270.0
 21
540.0
 31
0.0
  0
POLYLINE
  5
197
100
AcDbEntity
  8
VZ1
  6
CONTINUOUS
100
AcDbPolygonMesh
 66
     1
 10
0.0
 20
0.0
 30
0.0
 70
    16
 71
     6
 72
     3
  0
VERTEX
  5
198
100
AcDbEntity
  8
VZ1
  6
CONTINUOUS
100
AcDbVertex
100
AcDbPolygonMeshVertex
 10
270.0
 20
0.0
 30
203.0
 70
    64
  0
VERTEX
  5
199
100
AcDbEntity
  8
VZ1
  6
CONTINUOUS
100
AcDbVertex
100
AcDbPolygonMeshVertex
 10
270.0
 20
0.0
 30
-326.5
 70
    64
  0
VERTEX
  5
19A
100
AcDbEntity
  8
VZ1
  6
CONTINUOUS
100
AcDbVertex
100
AcDbPolygonMeshVertex
 10
270.0
 20
0.0
 30
-326.5
 70
    64
  0
VERTEX
  5
19B
100
AcDbEntity
  8
VZ1
  6
CONTINUOUS
100
AcDbVertex
100
AcDbPolygonMeshVertex
 10
-270.0
 20
0.0
 30
203.0
 70
    64
  0
VERTEX
  5
19C
100
AcDbEntity
  8
VZ1
  6
CONTINUOUS
100
AcDbVertex
100
AcDbPolygonMeshVertex
 10
-270.0
 20
0.0
 30
-326.5
 70
    64
  0
VERTEX
  5
19D
100
AcDbEntity
  8
VZ1
  6
CONTINUOUS
100
AcDbVertex
100
AcDbPolygonMeshVertex
 10
-270.0
 20
0.0
 30
-326.5
 70
    64
  0
VERTEX
  5
19E
100
AcDbEntity
  8
VZ1
  6
CONTINUOUS
100
AcDbVertex
100
AcDbPolygonMeshVertex
 10
-270.0
 20
540.0
 30
203.0
 70
    64
  0
VERTEX
  5
19F
100
AcDbEntity
  8
VZ1
  6
CONTINUOUS
100
AcDbVertex
100
AcDbPolygonMeshVertex
 10
-270.0
 20
540.0
 30
-326.5
 70
    64
  0
VERTEX
  5
1A0
100
AcDbEntity
  8
VZ1
  6
CONTINUOUS
100
AcDbVertex
100
AcDbPolygonMeshVertex
 10
-270.0
 20
0.0
 30
-326.5
 70
    64
  0
VERTEX
  5
1A1
100
AcDbEntity
  8
VZ1
  6
CONTINUOUS
100
AcDbVertex
100
AcDbPolygonMeshVertex
 10
270.0
 20
540.0
 30
203.0
 70
    64
  0
VERTEX
  5
1A2
100
AcDbEntity
  8
VZ1
  6
CONTINUOUS
100
AcDbVertex
100
AcDbPolygonMeshVertex
 10
270.0
 20
540.0
 30
-326.5
 70
    64
  0
VERTEX
  5
1A3
100
AcDbEntity
  8
VZ1
  6
CONTINUOUS
100
AcDbVertex
100
AcDbPolygonMeshVertex
 10
270.0
 20
0.0
 30
-326.5
 70
    64
  0
VERTEX
  5
1A4
100
AcDbEntity
  8
VZ1
  6
CONTINUOUS
100
AcDbVertex
100
AcDbPolygonMeshVertex
 10
270.0
 20
540.0
 30
203.0
 70
    64
  0
VERTEX
  5
1A5
100
AcDbEntity
  8
VZ1
  6
CONTINUOUS
100
AcDbVertex
100
AcDbPolygonMeshVertex
 10
270.0
 20
540.0
 30
203.0
 70
    64
  0
VERTEX
  5
1A6
100
AcDbEntity
  8
VZ1
  6
CONTINUOUS
100
AcDbVertex
100
AcDbPolygonMeshVertex
 10
270.0
 20
0.0
 30
203.0
 70
    64
  0
VERTEX
  5
1A7
100
AcDbEntity
  8
VZ1
  6
CONTINUOUS
100
AcDbVertex
100
AcDbPolygonMeshVertex
 10
-270.0
 20
540.0
 30
203.0
 70
    64
  0
VERTEX
  5
1A8
100
AcDbEntity
  8
VZ1
  6
CONTINUOUS
100
AcDbVertex
100
AcDbPolygonMeshVertex
 10
-270.0
 20
540.0
 30
203.0
 70
    64
  0
VERTEX
  5
1A9
100
AcDbEntity
  8
VZ1
  6
CONTINUOUS
100
AcDbVertex
100
AcDbPolygonMeshVertex
 10
-270.0
 20
0.0
 30
203.0
 70
    64
  0
SEQEND
  5
1AA
100
AcDbEntity
  8
VZ1
  6
CONTINUOUS
  0
POLYLINE
  5
1AB
100
AcDbEntity
  8
VZ1
  6
CONTINUOUS
100
AcDbPolygonMesh
 66
     1
 10
0.0
 20
0.0
 30
0.0
 70
    16
 71
     6
 72
     3
  0
VERTEX
  5
1AC
100
AcDbEntity
  8
VZ1
  6
CONTINUOUS
100
AcDbVertex
100
AcDbPolygonMeshVertex
 10
270.0
 20
0.0
 30
218.0
 70
    64
  0
VERTEX
  5
1AD
100
AcDbEntity
  8
VZ1
  6
CONTINUOUS
100
AcDbVertex
100
AcDbPolygonMeshVertex
 10
270.0
 20
0.0
 30
203.0
 70
    64
  0
VERTEX
  5
1AE
100
AcDbEntity
  8
VZ1
  6
CONTINUOUS
100
AcDbVertex
100
AcDbPolygonMeshVertex
 10
270.0
 20
0.0
 30
203.0
 70
    64
  0
VERTEX
  5
1AF
100
AcDbEntity
  8
VZ1
  6
CONTINUOUS
100
AcDbVertex
100
AcDbPolygonMeshVertex
 10
-270.0
 20
0.0
 30
218.0
 70
    64
  0
VERTEX
  5
1B0
100
AcDbEntity
  8
VZ1
  6
CONTINUOUS
100
AcDbVertex
100
AcDbPolygonMeshVertex
 10
-270.0
 20
0.0
 30
203.0
 70
    64
  0
VERTEX
  5
1B1
100
AcDbEntity
  8
VZ1
  6
CONTINUOUS
100
AcDbVertex
100
AcDbPolygonMeshVertex
 10
-270.0
 20
0.0
 30
203.0
 70
    64
  0
VERTEX
  5
1B2
100
AcDbEntity
  8
VZ1
  6
CONTINUOUS
100
AcDbVertex
100
AcDbPolygonMeshVertex
 10
-270.0
 20
540.0
 30
218.0
 70
    64
  0
VERTEX
  5
1B3
100
AcDbEntity
  8
VZ1
  6
CONTINUOUS
100
AcDbVertex
100
AcDbPolygonMeshVertex
 10
-270.0
 20
540.0
 30
203.0
 70
    64
  0
VERTEX
  5
1B4
100
AcDbEntity
  8
VZ1
  6
CONTINUOUS
100
AcDbVertex
100
AcDbPolygonMeshVertex
 10
-270.0
 20
0.0
 30
203.0
 70
    64
  0
VERTEX
  5
1B5
100
AcDbEntity
  8
VZ1
  6
CONTINUOUS
100
AcDbVertex
100
AcDbPolygonMeshVertex
 10
270.0
 20
540.0
 30
218.0
 70
    64
  0
VERTEX
  5
1B6
100
AcDbEntity
  8
VZ1
  6
CONTINUOUS
100
AcDbVertex
100
AcDbPolygonMeshVertex
 10
270.0
 20
540.0
 30
203.0
 70
    64
  0
VERTEX
  5
1B7
100
AcDbEntity
  8
VZ1
  6
CONTINUOUS
100
AcDbVertex
100
AcDbPolygonMeshVertex
 10
270.0
 20
0.0
 30
203.0
 70
    64
  0
VERTEX
  5
1B8
100
AcDbEntity
  8
VZ1
  6
CONTINUOUS
100
AcDbVertex
100
AcDbPolygonMeshVertex
 10
270.0
 20
540.0
 30
218.0
 70
    64
  0
VERTEX
  5
1B9
100
AcDbEntity
  8
VZ1
  6
CONTINUOUS
100
AcDbVertex
100
AcDbPolygonMeshVertex
 10
270.0
 20
540.0
 30
218.0
 70
    64
  0
VERTEX
  5
1BA
100
AcDbEntity
  8
VZ1
  6
CONTINUOUS
100
AcDbVertex
100
AcDbPolygonMeshVertex
 10
270.0
 20
0.0
 30
218.0
 70
    64
  0
VERTEX
  5
1BB
100
AcDbEntity
  8
VZ1
  6
CONTINUOUS
100
AcDbVertex
100
AcDbPolygonMeshVertex
 10
-270.0
 20
540.0
 30
218.0
 70
    64
  0
VERTEX
  5
1BC
100
AcDbEntity
  8
VZ1
  6
CONTINUOUS
100
AcDbVertex
100
AcDbPolygonMeshVertex
 10
-270.0
 20
540.0
 30
218.0
 70
    64
  0
VERTEX
  5
1BD
100
AcDbEntity
  8
VZ1
  6
CONTINUOUS
100
AcDbVertex
100
AcDbPolygonMeshVertex
 10
-270.0
 20
0.0
 30
218.0
 70
    64
  0
SEQEND
  5
1BE
100
AcDbEntity
  8
VZ1
  6
CONTINUOUS
  0
3DSOLID
  5
1BF
100
AcDbEntity
  8
VZ1
  6
CONTINUOUS
100
AcDbModelerGeometry
 70
     1
  1
noi kl n o          
  1
=0;& {n {m {rn {rn |
  1
9@=0;&r3(;r>++-6= {rn {l {rn {o |
  1
3*2/ {k {rn {j {o |
  1
-:9@)+r3(;r>++-6= {rn {rn {n {o {i {h |
  1
-:9@)+r3(;r>++-6= {rn {rn {rn {m {i {h |
  1
,7:33 {g {rn {rn {f {m |
  1
-:961:2:1+ {rn o o o o kqogonlimffnllloog o o o m |
  1
):-+:'@+:2/3>+: {rn l o n g |
  1
-:9@)+r3(;r>++-6= {rn {rn {rn {j {i {h |
  1
9><: {no {nn {nm {j {rn {nl 90-(>-; ,6183: |
  1
99><:r3(;r>++-6= {rn {nk {rn {f |
  1
9><: {nj {ni {nh {j {rn {ng 90-(>-; ,6183: |
  1
300/ {rn {nf {mo {f |
  1
<01:r,*-9><: {rn jqigklknggiogogonj:ronk jhn rjqigklknggiogogonj:ronk o rn rnqglifofjlohlljijf:roni nhhqj o o n V V o n o V V V V |
  1
-:9@)+r3(;r>++-6= {rn {rn {no {f {i {rn |
  1
99><:r3(;r>++-6= {rn {mn {rn {nn |
  1
9><: {mm {rn {ml {j {rn {mk 90-(>-; ,6183: |
  1
300/ {rn {rn {mj {nn |
  1
/3>1:r,*-9><: {rn jqigklknggiogogonj:ronk iom rjqigklknggiogogonj:ronk o n nqglifofjlohlljijf:roni rn o o o V V V V |
  1
300/ {rn {rn {mi {f |
  1
<0:;8: {mh {mo {mo {mj {mg n {nm {rn |
  1
-:9@)+r3(;r>++-6= {rn {rn {nj {nn {i {rn |
  1
99><:r3(;r>++-6= {rn {mf {rn {ni |
  1
300/ {rn {rn {lo {ni |
  1
/3>1:r,*-9><: {rn jqigklknggiogogonj:ronk jko rjqigklknggiogogonj:ronk o rn rnqglifofjlohlljijf:roni n o o o V V V V |
  1
<0:;8: {ln {mj {mj {mo {mg o {nh {rn |
  1
<0:;8: {lm {mi {mi {lo {ll n {nf {rn |
  1
<0/>-r3(;r>++-6= {rn {rn {rn {mo |
  1
:;8: {lk {lj {lj {mj {li o |
  1
-:9@)+r3(;r>++-6= {rn {rn {mm {ni {i {rn |
  1
<0:;8: {lh {lo {lo {mi {ll o {ml {rn |
  1
<0/>-r3(;r>++-6= {rn {rn {rn {mj |
  1
<0/>-r3(;r>++-6= {rn {rn {rn {mi |
  1
:;8: {lg {lf {lf {lo {ko o |
  1
:/>-r3(;r>++-6= {rn {rn {rn {mg |
  1
):-+:' {rn {mg {kn |
  1
:336/,:r<*-): {rn jqigklknggiogogonj:ronk iom rjqigklknggiogogonj:ronk o n nqglifofjlohlljijf:roni nhhqj o o n V V |
  1
<0/>-r3(;r>++-6= {rn {rn {rn {lo |
  1
:/>-r3(;r>++-6= {rn {rn {rn {ll |
  1
):-+:' {rn {ll {km |
  1
:336/,:r<*-): {rn jqigklknggiogogonj:ronk jko rjqigklknggiogogonj:ronk o rn rnqglifofjlohlljijf:roni nhhqj o o n V V |
  1
/061+ {rn nhhqjooooooooooooi iom rjqigklknggiogogonj:ronk |
  1
/061+ {rn nhhqjooooooooooooi jko rjqigklknggiogogonj:ronk |
  0
LINE
  5
1C0
100
AcDbEntity
  8
VZ1
  6
CONTINUOUS
100
AcDbLine
 10
172.5
 20
0.0
 30
168.0
 11
152.5
 21
0.0
 31
168.0
210
0.0
220
-1.0
230
-0.0000000000000002
  0
LINE
  5
1C1
100
AcDbEntity
  8
VZ1
  6
CONTINUOUS
100
AcDbLine
 10
152.5
 20
0.0
 30
168.0
 11
152.5
 21
0.0
 31
218.0
210
0.0
220
-1.0
230
-0.0000000000000002
  0
LINE
  5
1C2
100
AcDbEntity
  8
VZ1
  6
CONTINUOUS
100
AcDbLine
 10
172.5
 20
0.0
 30
218.0
 11
172.5
 21
0.0
 31
168.0
210
0.0
220
-1.0
230
-0.0000000000000002
  0
LINE
  5
1C3
100
AcDbEntity
  8
VZ1
  6
CONTINUOUS
100
AcDbLine
 10
-172.5
 20
0.0
 30
168.0
 11
-152.5
 21
0.0
 31
168.0
210
0.0
220
-1.0
230
-0.0000000000000002
  0
LINE
  5
1C4
100
AcDbEntity
  8
VZ1
  6
CONTINUOUS
100
AcDbLine
 10
-172.5
 20
0.0
 30
218.0
 11
-172.5
 21
0.0
 31
168.0
210
0.0
220
-1.0
230
-0.0000000000000002
  0
LINE
  5
1C5
100
AcDbEntity
  8
VZ1
  6
CONTINUOUS
100
AcDbLine
 10
-152.5
 20
0.0
 30
168.0
 11
-152.5
 21
0.0
 31
218.0
210
0.0
220
-1.0
230
-0.0000000000000002
  0
3DSOLID
  5
1C6
100
AcDbEntity
  8
VZ1
  6
CONTINUOUS
100
AcDbModelerGeometry
 70
     1
  1
noi kl n o          
  1
=0;& {n {m {rn {rn |
  1
9@=0;&r3(;r>++-6= {rn {l {rn {o |
  1
3*2/ {k {rn {j {o |
  1
-:9@)+r3(;r>++-6= {rn {rn {n {o {i {h |
  1
-:9@)+r3(;r>++-6= {rn {rn {rn {m {i {h |
  1
,7:33 {g {rn {rn {f {m |
  1
-:961:2:1+ {rn o o o o kqogonlimffnllloog o o o m |
  1
):-+:'@+:2/3>+: {rn l o n g |
  1
-:9@)+r3(;r>++-6= {rn {rn {rn {j {i {h |
  1
9><: {no {nn {nm {j {rn {nl 90-(>-; ,6183: |
  1
99><:r3(;r>++-6= {rn {nk {rn {f |
  1
9><: {nj {ni {nh {j {rn {ng 90-(>-; ,6183: |
  1
300/ {rn {nf {mo {f |
  1
<01:r,*-9><: {rn o rln o rmqkijnfolmggnjiinf:rolm rn rnqglifofjlohlljijf:roni nhhqj riqlnogghmknhigofkk:rolo lqmninhmllffofllok:roln n V V o n o V V V V |
  1
-:9@)+r3(;r>++-6= {rn {rn {no {f {i {rn |
  1
99><:r3(;r>++-6= {rn {mn {rn {nn |
  1
9><: {mm {rn {ml {j {rn {mk 90-(>-; ,6183: |
  1
300/ {rn {rn {mj {nn |
  1
/3>1:r,*-9><: {rn o o o mqkijnfolmggnjiinf:rolm n nqglifofjlohlljijf:roni rn mqkijnfolmggnjiinf:rolm rlqmljkggifnmligli:roll o V V V V |
  1
300/ {rn {rn {mi {f |
  1
<0:;8: {mh {mo {mo {mj {mg n {nm {rn |
  1
-:9@)+r3(;r>++-6= {rn {rn {nj {nn {i {rn |
  1
99><:r3(;r>++-6= {rn {mf {rn {ni |
  1
300/ {rn {rn {lo {ni |
  1
/3>1:r,*-9><: {rn o rim o rmqkijnfolmggnjiinf:rolm rn rnqglifofjlohlljijf:roni n rmqkijnfolmggnjiinf:rolm lqmljkggifnmligli:roll o V V V V |
  1
<0:;8: {ln {mj {mj {mo {mg o {nh {rn |
  1
<0:;8: {lm {mi {mi {lo {ll n {nf {rn |
  1
<0/>-r3(;r>++-6= {rn {rn {rn {mo |
  1
:;8: {lk {lj {lj {mj {li o |
  1
-:9@)+r3(;r>++-6= {rn {rn {mm {ni {i {rn |
  1
<0:;8: {lh {lo {lo {mi {ll o {ml {rn |
  1
<0/>-r3(;r>++-6= {rn {rn {rn {mj |
  1
<0/>-r3(;r>++-6= {rn {rn {rn {mi |
  1
:;8: {lg {lf {lf {lo {ko o |
  1
:/>-r3(;r>++-6= {rn {rn {rn {mg |
  1
):-+:' {rn {mg {kn |
  1
:336/,:r<*-): {rn o o o mqkijnfolmggnjiinf:rolm n nqglifofjlohlljijf:roni nhhqj riqlnogghmknhigofkk:rolo lqmninhmllffofllok:roln n V V |
  1
<0/>-r3(;r>++-6= {rn {rn {rn {lo |
  1
:/>-r3(;r>++-6= {rn {rn {rn {ll |
  1
):-+:' {rn {ll {km |
  1
:336/,:r<*-): {rn o rim o rmqkijnfolmggnjiinf:rolm rn rnqglifofjlohlljijf:roni nhhqj riqlnogghmknhigofkk:rolo lqmninhmllffofllok:roln n V V |
  1
/061+ {rn nhhqj o jqigklknggiogogonj:ronk |
  1
/061+ {rn nhhqjooooooooooooi rim jqigklknggiogogonj:ronk |
  0
LINE
  5
1C7
100
AcDbEntity
  8
VZ1
  6
CONTINUOUS
100
AcDbLine
 10
-152.5
 20
0.0
 30
218.0
 11
152.5
 21
0.0
 31
218.0
  0
ENDBLK
  5
1C9
100
AcDbEntity
  8
0
100
AcDbBlockEnd
  0
BLOCK
  5
1FD
100
AcDbEntity
  8
0
100
AcDbBlockBegin
  2
EDRI-400_3D
 70
     0
 10
0.0
 20
0.0
 30
0.0
  3
EDRI-400_3D
  1

  0
3DSOLID
  5
1CB
100
AcDbEntity
  8
VZ1
  6
CONTINUOUS
100
AcDbModelerGeometry
 70
     1
  1
noi kl n o          
  1
=0;& {n {m {rn {rn |
  1
9@=0;&r3(;r>++-6= {rn {l {rn {o |
  1
3*2/ {k {rn {j {o |
  1
-:9@)+r3(;r>++-6= {rn {rn {n {o {i {h |
  1
-:9@)+r3(;r>++-6= {rn {rn {rn {m {i {h |
  1
,7:33 {g {rn {rn {f {m |
  1
-:961:2:1+ {rn o o o o kqogonlimffnllloog o o o m |
  1
):-+:'@+:2/3>+: {rn l o n g |
  1
-:9@)+r3(;r>++-6= {rn {rn {rn {j {i {h |
  1
9><: {no {nn {nm {j {rn {nl 90-(>-; ,6183: |
  1
99><:r3(;r>++-6= {rn {nk {rn {f |
  1
9><: {nj {ni {nh {j {rn {ng 90-(>-; ,6183: |
  1
300/ {rn {nf {mo {f |
  1
<01:r,*-9><: {rn o jhkqflhoooooooooon rjqigklknggiogogonj:ronk o rn rnqglifofjlohlljijf:roni mooqokmkffffffffff o o n V V o n o V V V V |
  1
-:9@)+r3(;r>++-6= {rn {rn {no {f {i {rn |
  1
99><:r3(;r>++-6= {rn {mn {rn {nn |
  1
9><: {mm {rn {ml {j {rn {mk 90-(>-; ,6183: |
  1
300/ {rn {rn {mj {nn |
  1
/3>1:r,*-9><: {rn o iofqghlffffffffffn rjqigklknggiogogonj:ronk o n nqglifofjlohlljijf:roni rnqnmh o o o V V V V |
  1
300/ {rn {rn {mi {f |
  1
<0:;8: {mh {mo {mo {mj {mg n {nm {rn |
  1
-:9@)+r3(;r>++-6= {rn {rn {nj {nn {i {rn |
  1
99><:r3(;r>++-6= {rn {mf {rn {ni |
  1
300/ {rn {rn {lo {ni |
  1
/3>1:r,*-9><: {rn o jko rjqigklknggiogogonj:ronk o rn rnqglifofjlohlljijf:roni nqnmh o o o V V V V |
  1
<0:;8: {ln {mj {mj {mo {mg o {nh {rn |
  1
<0:;8: {lm {mi {mi {lo {ll n {nf {rn |
  1
<0/>-r3(;r>++-6= {rn {rn {rn {mo |
  1
:;8: {lk {lj {lj {mj {li o |
  1
-:9@)+r3(;r>++-6= {rn {rn {mm {ni {i {rn |
  1
<0:;8: {lh {lo {lo {mi {ll o {ml {rn |
  1
<0/>-r3(;r>++-6= {rn {rn {rn {mj |
  1
<0/>-r3(;r>++-6= {rn {rn {rn {mi |
  1
:;8: {lg {lf {lf {lo {ko o |
  1
:/>-r3(;r>++-6= {rn {rn {rn {mg |
  1
):-+:' {rn {mg {kn |
  1
:336/,:r<*-): {rn o iofqghlffffffffffn rjqigklknggiogogonj:ronk o n nqglifofjlohlljijf:roni mooqokmkffffffffff o o n V V |
  1
<0/>-r3(;r>++-6= {rn {rn {rn {lo |
  1
:/>-r3(;r>++-6= {rn {rn {rn {ll |
  1
):-+:' {rn {ll {km |
  1
:336/,:r<*-): {rn o jko rjqigklknggiogogonj:ronk o rn rnqglifofjlohlljijf:roni mooqokmkffffffffff o o n V V |
  1
/061+ {rn mooqokmkffffffffff iofqghlffffffffffn rjqigklknggiogogonj:ronk |
  1
/061+ {rn mooqokmkffffffffff jko rjqigklknggiogogonj:ronk |
  0
3DSOLID
  5
1CC
100
AcDbEntity
  8
VZ1
  6
CONTINUOUS
100
AcDbModelerGeometry
 70
     1
  1
noi kl n o          
  1
=0;& {n {m {rn {rn |
  1
9@=0;&r3(;r>++-6= {rn {l {rn {o |
  1
3*2/ {k {rn {j {o |
  1
-:9@)+r3(;r>++-6= {rn {rn {n {o {i {h |
  1
-:9@)+r3(;r>++-6= {rn {rn {rn {m {i {h |
  1
,7:33 {g {rn {rn {f {m |
  1
-:961:2:1+ {rn o o o o kqogonlimffnllloog o o o m |
  1
):-+:'@+:2/3>+: {rn l o n g |
  1
-:9@)+r3(;r>++-6= {rn {rn {rn {j {i {h |
  1
9><: {no {nn {nm {j {rn {nl 90-(>-; ,6183: |
  1
99><:r3(;r>++-6= {rn {nk {rn {f |
  1
9><: {nj {ni {nh {j {rn {ng 90-(>-; ,6183: |
  1
300/ {rn {nf {mo {f |
  1
<01:r,*-9><: {rn o rlkqflifffffffffffg o rmqkijnfolmggnjiinf:rolm rn rnqglifofjlohlljijf:roni mooqokmkffffffffff rhqnnmliffmnkhmikmk:rolo lqimkimimmhohhgnjk:roln n V V o n o V V V V |
  1
-:9@)+r3(;r>++-6= {rn {rn {no {f {i {rn |
  1
99><:r3(;r>++-6= {rn {mn {rn {nn |
  1
9><: {mm {rn {ml {j {rn {mk 90-(>-; ,6183: |
  1
300/ {rn {rn {mj {nn |
  1
/3>1:r,*-9><: {rn o o o mqkijnfolmggnjiinf:rolm n nqglifofjlohlljijf:roni rnqnmh mqhhgmifjoojhjmjn:rolm rlqikilfjhjjomlfnkj:roll o V V V V |
  1
300/ {rn {rn {mi {f |
  1
<0:;8: {mh {mo {mo {mj {mg n {nm {rn |
  1
-:9@)+r3(;r>++-6= {rn {rn {nj {nn {i {rn |
  1
99><:r3(;r>++-6= {rn {mf {rn {ni |
  1
300/ {rn {rn {lo {ni |
  1
/3>1:r,*-9><: {rn o rifqghlfffffffffffj o rmqkijnfolmggnjiinf:rolm rn rnqglifofjlohlljijf:roni nqnmh rmqhhgmifjoojhjmjn:rolm lqikilfjhjjomlfnkj:roll o V V V V |
  1
<0:;8: {ln {mj {mj {mo {mg o {nh {rn |
  1
<0:;8: {lm {mi {mi {lo {ll n {nf {rn |
  1
<0/>-r3(;r>++-6= {rn {rn {rn {mo |
  1
:;8: {lk {lj {lj {mj {li o |
  1
-:9@)+r3(;r>++-6= {rn {rn {mm {ni {i {rn |
  1
<0:;8: {lh {lo {lo {mi {ll o {ml {rn |
  1
<0/>-r3(;r>++-6= {rn {rn {rn {mj |
  1
<0/>-r3(;r>++-6= {rn {rn {rn {mi |
  1
:;8: {lg {lf {lf {lo {ko o |
  1
:/>-r3(;r>++-6= {rn {rn {rn {mg |
  1
):-+:' {rn {mg {kn |
  1
:336/,:r<*-): {rn o o o mqkijnfolmggnjiinf:rolm n nqglifofjlohlljijf:roni mooqokmkffffffffff rhqnnmliffmnkhmikmk:rolo lqimkimimmhohhgnjk:roln n V V |
  1
<0/>-r3(;r>++-6= {rn {rn {rn {lo |
  1
:/>-r3(;r>++-6= {rn {rn {rn {ll |
  1
):-+:' {rn {ll {km |
  1
:336/,:r<*-): {rn o rifqghlfffffffffffj o rmqkijnfolmggnjiinf:rolm rn rnqglifofjlohlljijf:roni mooqokmkffffffffff rhqnnmliffmnkhmikmk:rolo lqimkimimmhohhgnjk:roln n V V |
  1
/061+ {rn mooqokmkffffffffff o iqkoimjllojinloill:ronk |
  1
/061+ {rn mooqokmkffffffffff rifqghlfffffffffffj iqkoimjllojinloill:ronk |
  0
POLYLINE
  5
1CD
100
AcDbEntity
  8
VZ1
  6
CONTINUOUS
100
AcDbPolygonMesh
 66
     1
 10
0.0
 20
0.0
 30
0.0
 70
    16
 71
     6
 72
     3
  0
VERTEX
  5
1CE
100
AcDbEntity
  8
VZ1
  6
CONTINUOUS
100
AcDbVertex
100
AcDbPolygonMeshVertex
 10
270.0
 20
0.0
 30
203.0
 70
    64
  0
VERTEX
  5
1CF
100
AcDbEntity
  8
VZ1
  6
CONTINUOUS
100
AcDbVertex
100
AcDbPolygonMeshVertex
 10
270.0
 20
0.0
 30
-326.5
 70
    64
  0
VERTEX
  5
1D0
100
AcDbEntity
  8
VZ1
  6
CONTINUOUS
100
AcDbVertex
100
AcDbPolygonMeshVertex
 10
270.0
 20
0.0
 30
-326.5
 70
    64
  0
VERTEX
  5
1D1
100
AcDbEntity
  8
VZ1
  6
CONTINUOUS
100
AcDbVertex
100
AcDbPolygonMeshVertex
 10
-270.0
 20
0.0
 30
203.0
 70
    64
  0
VERTEX
  5
1D2
100
AcDbEntity
  8
VZ1
  6
CONTINUOUS
100
AcDbVertex
100
AcDbPolygonMeshVertex
 10
-270.0
 20
0.0
 30
-326.5
 70
    64
  0
VERTEX
  5
1D3
100
AcDbEntity
  8
VZ1
  6
CONTINUOUS
100
AcDbVertex
100
AcDbPolygonMeshVertex
 10
-270.0
 20
0.0
 30
-326.5
 70
    64
  0
VERTEX
  5
1D4
100
AcDbEntity
  8
VZ1
  6
CONTINUOUS
100
AcDbVertex
100
AcDbPolygonMeshVertex
 10
-270.0
 20
540.0
 30
203.0
 70
    64
  0
VERTEX
  5
1D5
100
AcDbEntity
  8
VZ1
  6
CONTINUOUS
100
AcDbVertex
100
AcDbPolygonMeshVertex
 10
-270.0
 20
540.0
 30
-326.5
 70
    64
  0
VERTEX
  5
1D6
100
AcDbEntity
  8
VZ1
  6
CONTINUOUS
100
AcDbVertex
100
AcDbPolygonMeshVertex
 10
-270.0
 20
0.0
 30
-326.5
 70
    64
  0
VERTEX
  5
1D7
100
AcDbEntity
  8
VZ1
  6
CONTINUOUS
100
AcDbVertex
100
AcDbPolygonMeshVertex
 10
270.0
 20
540.0
 30
203.0
 70
    64
  0
VERTEX
  5
1D8
100
AcDbEntity
  8
VZ1
  6
CONTINUOUS
100
AcDbVertex
100
AcDbPolygonMeshVertex
 10
270.0
 20
540.0
 30
-326.5
 70
    64
  0
VERTEX
  5
1D9
100
AcDbEntity
  8
VZ1
  6
CONTINUOUS
100
AcDbVertex
100
AcDbPolygonMeshVertex
 10
270.0
 20
0.0
 30
-326.5
 70
    64
  0
VERTEX
  5
1DA
100
AcDbEntity
  8
VZ1
  6
CONTINUOUS
100
AcDbVertex
100
AcDbPolygonMeshVertex
 10
270.0
 20
540.0
 30
203.0
 70
    64
  0
VERTEX
  5
1DB
100
AcDbEntity
  8
VZ1
  6
CONTINUOUS
100
AcDbVertex
100
AcDbPolygonMeshVertex
 10
270.0
 20
540.0
 30
203.0
 70
    64
  0
VERTEX
  5
1DC
100
AcDbEntity
  8
VZ1
  6
CONTINUOUS
100
AcDbVertex
100
AcDbPolygonMeshVertex
 10
270.0
 20
0.0
 30
203.0
 70
    64
  0
VERTEX
  5
1DD
100
AcDbEntity
  8
VZ1
  6
CONTINUOUS
100
AcDbVertex
100
AcDbPolygonMeshVertex
 10
-270.0
 20
540.0
 30
203.0
 70
    64
  0
VERTEX
  5
1DE
100
AcDbEntity
  8
VZ1
  6
CONTINUOUS
100
AcDbVertex
100
AcDbPolygonMeshVertex
 10
-270.0
 20
540.0
 30
203.0
 70
    64
  0
VERTEX
  5
1DF
100
AcDbEntity
  8
VZ1
  6
CONTINUOUS
100
AcDbVertex
100
AcDbPolygonMeshVertex
 10
-270.0
 20
0.0
 30
203.0
 70
    64
  0
SEQEND
  5
1E0
100
AcDbEntity
  8
VZ1
  6
CONTINUOUS
  0
LINE
  5
1E1
100
AcDbEntity
  8
VZ1
  6
CONTINUOUS
100
AcDbLine
 10
-270.0
 20
540.0
 30
-326.5
 11
-270.0
 21
540.0
 31
0.0
  0
LINE
  5
1E2
100
AcDbEntity
  8
VZ1
  6
CONTINUOUS
100
AcDbLine
 10
-152.5
 20
0.0
 30
218.0
 11
152.5
 21
0.0
 31
218.0
  0
POLYLINE
  5
1E3
100
AcDbEntity
  8
VZ1
  6
CONTINUOUS
100
AcDbPolygonMesh
 66
     1
 10
0.0
 20
0.0
 30
0.0
 70
    16
 71
     6
 72
     3
  0
VERTEX
  5
1E4
100
AcDbEntity
  8
VZ1
  6
CONTINUOUS
100
AcDbVertex
100
AcDbPolygonMeshVertex
 10
270.0
 20
0.0
 30
218.0
 70
    64
  0
VERTEX
  5
1E5
100
AcDbEntity
  8
VZ1
  6
CONTINUOUS
100
AcDbVertex
100
AcDbPolygonMeshVertex
 10
270.0
 20
0.0
 30
203.0
 70
    64
  0
VERTEX
  5
1E6
100
AcDbEntity
  8
VZ1
  6
CONTINUOUS
100
AcDbVertex
100
AcDbPolygonMeshVertex
 10
270.0
 20
0.0
 30
203.0
 70
    64
  0
VERTEX
  5
1E7
100
AcDbEntity
  8
VZ1
  6
CONTINUOUS
100
AcDbVertex
100
AcDbPolygonMeshVertex
 10
-270.0
 20
0.0
 30
218.0
 70
    64
  0
VERTEX
  5
1E8
100
AcDbEntity
  8
VZ1
  6
CONTINUOUS
100
AcDbVertex
100
AcDbPolygonMeshVertex
 10
-270.0
 20
0.0
 30
203.0
 70
    64
  0
VERTEX
  5
1E9
100
AcDbEntity
  8
VZ1
  6
CONTINUOUS
100
AcDbVertex
100
AcDbPolygonMeshVertex
 10
-270.0
 20
0.0
 30
203.0
 70
    64
  0
VERTEX
  5
1EA
100
AcDbEntity
  8
VZ1
  6
CONTINUOUS
100
AcDbVertex
100
AcDbPolygonMeshVertex
 10
-270.0
 20
540.0
 30
218.0
 70
    64
  0
VERTEX
  5
1EB
100
AcDbEntity
  8
VZ1
  6
CONTINUOUS
100
AcDbVertex
100
AcDbPolygonMeshVertex
 10
-270.0
 20
540.0
 30
203.0
 70
    64
  0
VERTEX
  5
1EC
100
AcDbEntity
  8
VZ1
  6
CONTINUOUS
100
AcDbVertex
100
AcDbPolygonMeshVertex
 10
-270.0
 20
0.0
 30
203.0
 70
    64
  0
VERTEX
  5
1ED
100
AcDbEntity
  8
VZ1
  6
CONTINUOUS
100
AcDbVertex
100
AcDbPolygonMeshVertex
 10
270.0
 20
540.0
 30
218.0
 70
    64
  0
VERTEX
  5
1EE
100
AcDbEntity
  8
VZ1
  6
CONTINUOUS
100
AcDbVertex
100
AcDbPolygonMeshVertex
 10
270.0
 20
540.0
 30
203.0
 70
    64
  0
VERTEX
  5
1EF
100
AcDbEntity
  8
VZ1
  6
CONTINUOUS
100
AcDbVertex
100
AcDbPolygonMeshVertex
 10
270.0
 20
0.0
 30
203.0
 70
    64
  0
VERTEX
  5
1F0
100
AcDbEntity
  8
VZ1
  6
CONTINUOUS
100
AcDbVertex
100
AcDbPolygonMeshVertex
 10
270.0
 20
540.0
 30
218.0
 70
    64
  0
VERTEX
  5
1F1
100
AcDbEntity
  8
VZ1
  6
CONTINUOUS
100
AcDbVertex
100
AcDbPolygonMeshVertex
 10
270.0
 20
540.0
 30
218.0
 70
    64
  0
VERTEX
  5
1F2
100
AcDbEntity
  8
VZ1
  6
CONTINUOUS
100
AcDbVertex
100
AcDbPolygonMeshVertex
 10
270.0
 20
0.0
 30
218.0
 70
    64
  0
VERTEX
  5
1F3
100
AcDbEntity
  8
VZ1
  6
CONTINUOUS
100
AcDbVertex
100
AcDbPolygonMeshVertex
 10
-270.0
 20
540.0
 30
218.0
 70
    64
  0
VERTEX
  5
1F4
100
AcDbEntity
  8
VZ1
  6
CONTINUOUS
100
AcDbVertex
100
AcDbPolygonMeshVertex
 10
-270.0
 20
540.0
 30
218.0
 70
    64
  0
VERTEX
  5
1F5
100
AcDbEntity
  8
VZ1
  6
CONTINUOUS
100
AcDbVertex
100
AcDbPolygonMeshVertex
 10
-270.0
 20
0.0
 30
218.0
 70
    64
  0
SEQEND
  5
1F6
100
AcDbEntity
  8
VZ1
  6
CONTINUOUS
  0
LINE
  5
1F7
100
AcDbEntity
  8
VZ1
  6
CONTINUOUS
100
AcDbLine
 10
-152.5
 20
0.0
 30
168.0
 11
-152.5
 21
0.0
 31
218.0
210
0.0
220
-1.0
230
-0.0000000000000002
  0
LINE
  5
1F8
100
AcDbEntity
  8
VZ1
  6
CONTINUOUS
100
AcDbLine
 10
-172.5
 20
0.0
 30
218.0
 11
-172.5
 21
0.0
 31
168.0
210
0.0
220
-1.0
230
-0.0000000000000002
  0
LINE
  5
1F9
100
AcDbEntity
  8
VZ1
  6
CONTINUOUS
100
AcDbLine
 10
-172.5
 20
0.0
 30
168.0
 11
-152.5
 21
0.0
 31
168.0
210
0.0
220
-1.0
230
-0.0000000000000002
  0
LINE
  5
1FA
100
AcDbEntity
  8
VZ1
  6
CONTINUOUS
100
AcDbLine
 10
172.5
 20
0.0
 30
218.0
 11
172.5
 21
0.0
 31
168.0
210
0.0
220
-1.0
230
-0.0000000000000002
  0
LINE
  5
1FB
100
AcDbEntity
  8
VZ1
  6
CONTINUOUS
100
AcDbLine
 10
152.5
 20
0.0
 30
168.0
 11
152.5
 21
0.0
 31
218.0
210
0.0
220
-1.0
230
-0.0000000000000002
  0
LINE
  5
1FC
100
AcDbEntity
  8
VZ1
  6
CONTINUOUS
100
AcDbLine
 10
172.5
 20
0.0
 30
168.0
 11
152.5
 21
0.0
 31
168.0
210
0.0
220
-1.0
230
-0.0000000000000002
  0
ENDBLK
  5
1FE
100
AcDbEntity
  8
0
100
AcDbBlockEnd
  0
BLOCK
  5
201
100
AcDbEntity
  8
0
100
AcDbBlockBegin
  2
183236_3D
 70
     0
 10
0.0
 20
0.0
 30
0.0
  3
183236_3D
  1

  0
INSERT
  5
200
100
AcDbEntity
  8
VZ1
  6
CONTINUOUS
100
AcDbBlockReference
  2
EDRI-400_3D
 10
0.0
 20
0.0
 30
0.0
  0
ENDBLK
  5
202
100
AcDbEntity
  8
0
100
AcDbBlockEnd
  0
ENDSEC
  0
SECTION
  2
ENTITIES
  0
POLYLINE
  5
31F
100
AcDbEntity
  8
VZ1
100
AcDbPolygonMesh
 66
     1
 10
0.0
 20
0.0
 30
0.0
 70
    16
 71
     6
 72
     3
  0
VERTEX
  5
320
100
AcDbEntity
  8
VZ1
100
AcDbVertex
100
AcDbPolygonMeshVertex
 10
780.0
 20
-390.0
 30
345.0
 70
    64
  0
VERTEX
  5
321
100
AcDbEntity
  8
VZ1
100
AcDbVertex
100
AcDbPolygonMeshVertex
 10
780.0
 20
-390.0
 30
-330.0
 70
    64
  0
VERTEX
  5
322
100
AcDbEntity
  8
VZ1
100
AcDbVertex
100
AcDbPolygonMeshVertex
 10
780.0
 20
-390.0
 30
-330.0
 70
    64
  0
VERTEX
  5
323
100
AcDbEntity
  8
VZ1
100
AcDbVertex
100
AcDbPolygonMeshVertex
 10
0.0
 20
-390.0
 30
345.0
 70
    64
  0
VERTEX
  5
324
100
AcDbEntity
  8
VZ1
100
AcDbVertex
100
AcDbPolygonMeshVertex
 10
0.0
 20
-390.0
 30
-330.0
 70
    64
  0
VERTEX
  5
325
100
AcDbEntity
  8
VZ1
100
AcDbVertex
100
AcDbPolygonMeshVertex
 10
0.0
 20
-390.0
 30
-330.0
 70
    64
  0
VERTEX
  5
326
100
AcDbEntity
  8
VZ1
100
AcDbVertex
100
AcDbPolygonMeshVertex
 10
0.0
 20
390.0
 30
345.0
 70
    64
  0
VERTEX
  5
327
100
AcDbEntity
  8
VZ1
100
AcDbVertex
100
AcDbPolygonMeshVertex
 10
0.0
 20
390.0
 30
-330.0
 70
    64
  0
VERTEX
  5
328
100
AcDbEntity
  8
VZ1
100
AcDbVertex
100
AcDbPolygonMeshVertex
 10
0.0
 20
-390.0
 30
-330.0
 70
    64
  0
VERTEX
  5
329
100
AcDbEntity
  8
VZ1
100
AcDbVertex
100
AcDbPolygonMeshVertex
 10
780.0
 20
390.0
 30
345.0
 70
    64
  0
VERTEX
  5
32A
100
AcDbEntity
  8
VZ1
100
AcDbVertex
100
AcDbPolygonMeshVertex
 10
780.0
 20
390.0
 30
-330.0
 70
    64
  0
VERTEX
  5
32B
100
AcDbEntity
  8
VZ1
100
AcDbVertex
100
AcDbPolygonMeshVertex
 10
780.0
 20
-390.0
 30
-330.0
 70
    64
  0
VERTEX
  5
32C
100
AcDbEntity
  8
VZ1
100
AcDbVertex
100
AcDbPolygonMeshVertex
 10
780.0
 20
390.0
 30
345.0
 70
    64
  0
VERTEX
  5
32D
100
AcDbEntity
  8
VZ1
100
AcDbVertex
100
AcDbPolygonMeshVertex
 10
780.0
 20
390.0
 30
345.0
 70
    64
  0
VERTEX
  5
32E
100
AcDbEntity
  8
VZ1
100
AcDbVertex
100
AcDbPolygonMeshVertex
 10
780.0
 20
-390.0
 30
345.0
 70
    64
  0
VERTEX
  5
32F
100
AcDbEntity
  8
VZ1
100
AcDbVertex
100
AcDbPolygonMeshVertex
 10
0.0
 20
390.0
 30
345.0
 70
    64
  0
VERTEX
  5
330
100
AcDbEntity
  8
VZ1
100
AcDbVertex
100
AcDbPolygonMeshVertex
 10
0.0
 20
390.0
 30
345.0
 70
    64
  0
VERTEX
  5
331
100
AcDbEntity
  8
VZ1
100
AcDbVertex
100
AcDbPolygonMeshVertex
 10
0.0
 20
-390.0
 30
345.0
 70
    64
  0
SEQEND
  5
332
100
AcDbEntity
  8
VZ1
  0
POLYLINE
  5
347
100
AcDbEntity
  8
VZ1
100
AcDbPolygonMesh
 66
     1
 10
0.0
 20
0.0
 30
0.0
 70
    16
 71
     6
 72
     3
  0
VERTEX
  5
348
100
AcDbEntity
  8
VZ1
100
AcDbVertex
100
AcDbPolygonMeshVertex
 10
745.0
 20
-425.0
 30
310.0
 70
    64
  0
VERTEX
  5
349
100
AcDbEntity
  8
VZ1
100
AcDbVertex
100
AcDbPolygonMeshVertex
 10
745.0
 20
-425.0
 30
-295.0
 70
    64
  0
VERTEX
  5
34A
100
AcDbEntity
  8
VZ1
100
AcDbVertex
100
AcDbPolygonMeshVertex
 10
745.0
 20
-425.0
 30
-295.0
 70
    64
  0
VERTEX
  5
34B
100
AcDbEntity
  8
VZ1
100
AcDbVertex
100
AcDbPolygonMeshVertex
 10
35.0
 20
-425.0
 30
310.0
 70
    64
  0
VERTEX
  5
34C
100
AcDbEntity
  8
VZ1
100
AcDbVertex
100
AcDbPolygonMeshVertex
 10
35.0
 20
-425.0
 30
-295.0
 70
    64
  0
VERTEX
  5
34D
100
AcDbEntity
  8
VZ1
100
AcDbVertex
100
AcDbPolygonMeshVertex
 10
35.0
 20
-425.0
 30
-295.0
 70
    64
  0
VERTEX
  5
34E
100
AcDbEntity
  8
VZ1
100
AcDbVertex
100
AcDbPolygonMeshVertex
 10
35.0
 20
-390.0
 30
310.0
 70
    64
  0
VERTEX
  5
34F
100
AcDbEntity
  8
VZ1
100
AcDbVertex
100
AcDbPolygonMeshVertex
 10
35.0
 20
-390.0
 30
-295.0
 70
    64
  0
VERTEX
  5
350
100
AcDbEntity
  8
VZ1
100
AcDbVertex
100
AcDbPolygonMeshVertex
 10
35.0
 20
-425.0
 30
-295.0
 70
    64
  0
VERTEX
  5
351
100
AcDbEntity
  8
VZ1
100
AcDbVertex
100
AcDbPolygonMeshVertex
 10
745.0
 20
-390.0
 30
310.0
 70
    64
  0
VERTEX
  5
352
100
AcDbEntity
  8
VZ1
100
AcDbVertex
100
AcDbPolygonMeshVertex
 10
745.0
 20
-390.0
 30
-295.0
 70
    64
  0
VERTEX
  5
353
100
AcDbEntity
  8
VZ1
100
AcDbVertex
100
AcDbPolygonMeshVertex
 10
745.0
 20
-425.0
 30
-295.0
 70
    64
  0
VERTEX
  5
354
100
AcDbEntity
  8
VZ1
100
AcDbVertex
100
AcDbPolygonMeshVertex
 10
745.0
 20
-390.0
 30
310.0
 70
    64
  0
VERTEX
  5
355
100
AcDbEntity
  8
VZ1
100
AcDbVertex
100
AcDbPolygonMeshVertex
 10
745.0
 20
-390.0
 30
310.0
 70
    64
  0
VERTEX
  5
356
100
AcDbEntity
  8
VZ1
100
AcDbVertex
100
AcDbPolygonMeshVertex
 10
745.0
 20
-425.0
 30
310.0
 70
    64
  0
VERTEX
  5
357
100
AcDbEntity
  8
VZ1
100
AcDbVertex
100
AcDbPolygonMeshVertex
 10
35.0
 20
-390.0
 30
310.0
 70
    64
  0
VERTEX
  5
358
100
AcDbEntity
  8
VZ1
100
AcDbVertex
100
AcDbPolygonMeshVertex
 10
35.0
 20
-390.0
 30
310.0
 70
    64
  0
VERTEX
  5
359
100
AcDbEntity
  8
VZ1
100
AcDbVertex
100
AcDbPolygonMeshVertex
 10
35.0
 20
-425.0
 30
310.0
 70
    64
  0
SEQEND
  5
35A
100
AcDbEntity
  8
VZ1
  0
POLYLINE
  5
35B
100
AcDbEntity
  8
VZ1
100
AcDbPolygonMesh
 66
     1
 10
0.0
 20
0.0
 30
0.0
 70
    16
 71
     6
 72
     3
  0
VERTEX
  5
35C
100
AcDbEntity
  8
VZ1
100
AcDbVertex
100
AcDbPolygonMeshVertex
 10
745.0
 20
425.0
 30
310.0
 70
    64
  0
VERTEX
  5
35D
100
AcDbEntity
  8
VZ1
100
AcDbVertex
100
AcDbPolygonMeshVertex
 10
745.0
 20
425.0
 30
-295.0
 70
    64
  0
VERTEX
  5
35E
100
AcDbEntity
  8
VZ1
100
AcDbVertex
100
AcDbPolygonMeshVertex
 10
745.0
 20
425.0
 30
-295.0
 70
    64
  0
VERTEX
  5
35F
100
AcDbEntity
  8
VZ1
100
AcDbVertex
100
AcDbPolygonMeshVertex
 10
35.0
 20
425.0
 30
310.0
 70
    64
  0
VERTEX
  5
360
100
AcDbEntity
  8
VZ1
100
AcDbVertex
100
AcDbPolygonMeshVertex
 10
35.0
 20
425.0
 30
-295.0
 70
    64
  0
VERTEX
  5
361
100
AcDbEntity
  8
VZ1
100
AcDbVertex
100
AcDbPolygonMeshVertex
 10
35.0
 20
425.0
 30
-295.0
 70
    64
  0
VERTEX
  5
362
100
AcDbEntity
  8
VZ1
100
AcDbVertex
100
AcDbPolygonMeshVertex
 10
35.0
 20
390.0
 30
310.0
 70
    64
  0
VERTEX
  5
363
100
AcDbEntity
  8
VZ1
100
AcDbVertex
100
AcDbPolygonMeshVertex
 10
35.0
 20
390.0
 30
-295.0
 70
    64
  0
VERTEX
  5
364
100
AcDbEntity
  8
VZ1
100
AcDbVertex
100
AcDbPolygonMeshVertex
 10
35.0
 20
425.0
 30
-295.0
 70
    64
  0
VERTEX
  5
365
100
AcDbEntity
  8
VZ1
100
AcDbVertex
100
AcDbPolygonMeshVertex
 10
745.0
 20
390.0
 30
310.0
 70
    64
  0
VERTEX
  5
366
100
AcDbEntity
  8
VZ1
100
AcDbVertex
100
AcDbPolygonMeshVertex
 10
745.0
 20
390.0
 30
-295.0
 70
    64
  0
VERTEX
  5
367
100
AcDbEntity
  8
VZ1
100
AcDbVertex
100
AcDbPolygonMeshVertex
 10
745.0
 20
425.0
 30
-295.0
 70
    64
  0
VERTEX
  5
368
100
AcDbEntity
  8
VZ1
100
AcDbVertex
100
AcDbPolygonMeshVertex
 10
745.0
 20
390.0
 30
310.0
 70
    64
  0
VERTEX
  5
369
100
AcDbEntity
  8
VZ1
100
AcDbVertex
100
AcDbPolygonMeshVertex
 10
745.0
 20
390.0
 30
310.0
 70
    64
  0
VERTEX
  5
36A
100
AcDbEntity
  8
VZ1
100
AcDbVertex
100
AcDbPolygonMeshVertex
 10
745.0
 20
425.0
 30
310.0
 70
    64
  0
VERTEX
  5
36B
100
AcDbEntity
  8
VZ1
100
AcDbVertex
100
AcDbPolygonMeshVertex
 10
35.0
 20
390.0
 30
310.0
 70
    64
  0
VERTEX
  5
36C
100
AcDbEntity
  8
VZ1
100
AcDbVertex
100
AcDbPolygonMeshVertex
 10
35.0
 20
390.0
 30
310.0
 70
    64
  0
VERTEX
  5
36D
100
AcDbEntity
  8
VZ1
100
AcDbVertex
100
AcDbPolygonMeshVertex
 10
35.0
 20
425.0
 30
310.0
 70
    64
  0
SEQEND
  5
36E
100
AcDbEntity
  8
VZ1
  0
POLYLINE
  5
36F
100
AcDbEntity
  8
VZ1
100
AcDbPolygonMesh
 66
     1
 10
0.0
 20
0.0
 30
0.0
 70
    16
 71
     6
 72
     3
  0
VERTEX
  5
370
100
AcDbEntity
  8
VZ1
100
AcDbVertex
100
AcDbPolygonMeshVertex
 10
0.0
 20
-355.0
 30
300.0
 70
    64
  0
VERTEX
  5
371
100
AcDbEntity
  8
VZ1
100
AcDbVertex
100
AcDbPolygonMeshVertex
 10
0.0
 20
-355.0
 30
0.0
 70
    64
  0
VERTEX
  5
372
100
AcDbEntity
  8
VZ1
100
AcDbVertex
100
AcDbPolygonMeshVertex
 10
0.0
 20
-355.0
 30
0.0
 70
    64
  0
VERTEX
  5
373
100
AcDbEntity
  8
VZ1
100
AcDbVertex
100
AcDbPolygonMeshVertex
 10
-35.0
 20
-355.0
 30
300.0
 70
    64
  0
VERTEX
  5
374
100
AcDbEntity
  8
VZ1
100
AcDbVertex
100
AcDbPolygonMeshVertex
 10
-35.0
 20
-355.0
 30
0.0
 70
    64
  0
VERTEX
  5
375
100
AcDbEntity
  8
VZ1
100
AcDbVertex
100
AcDbPolygonMeshVertex
 10
-35.0
 20
-355.0
 30
0.0
 70
    64
  0
VERTEX
  5
376
100
AcDbEntity
  8
VZ1
100
AcDbVertex
100
AcDbPolygonMeshVertex
 10
-35.0
 20
355.0
 30
300.0
 70
    64
  0
VERTEX
  5
377
100
AcDbEntity
  8
VZ1
100
AcDbVertex
100
AcDbPolygonMeshVertex
 10
-35.0
 20
355.0
 30
0.0
 70
    64
  0
VERTEX
  5
378
100
AcDbEntity
  8
VZ1
100
AcDbVertex
100
AcDbPolygonMeshVertex
 10
-35.0
 20
-355.0
 30
0.0
 70
    64
  0
VERTEX
  5
379
100
AcDbEntity
  8
VZ1
100
AcDbVertex
100
AcDbPolygonMeshVertex
 10
0.0
 20
355.0
 30
300.0
 70
    64
  0
VERTEX
  5
37A
100
AcDbEntity
  8
VZ1
100
AcDbVertex
100
AcDbPolygonMeshVertex
 10
0.0
 20
355.0
 30
0.0
 70
    64
  0
VERTEX
  5
37B
100
AcDbEntity
  8
VZ1
100
AcDbVertex
100
AcDbPolygonMeshVertex
 10
0.0
 20
-355.0
 30
0.0
 70
    64
  0
VERTEX
  5
37C
100
AcDbEntity
  8
VZ1
100
AcDbVertex
100
AcDbPolygonMeshVertex
 10
0.0
 20
355.0
 30
300.0
 70
    64
  0
VERTEX
  5
37D
100
AcDbEntity
  8
VZ1
100
AcDbVertex
100
AcDbPolygonMeshVertex
 10
0.0
 20
355.0
 30
300.0
 70
    64
  0
VERTEX
  5
37E
100
AcDbEntity
  8
VZ1
100
AcDbVertex
100
AcDbPolygonMeshVertex
 10
0.0
 20
-355.0
 30
300.0
 70
    64
  0
VERTEX
  5
37F
100
AcDbEntity
  8
VZ1
100
AcDbVertex
100
AcDbPolygonMeshVertex
 10
-35.0
 20
355.0
 30
300.0
 70
    64
  0
VERTEX
  5
380
100
AcDbEntity
  8
VZ1
100
AcDbVertex
100
AcDbPolygonMeshVertex
 10
-35.0
 20
355.0
 30
300.0
 70
    64
  0
VERTEX
  5
381
100
AcDbEntity
  8
VZ1
100
AcDbVertex
100
AcDbPolygonMeshVertex
 10
-35.0
 20
-355.0
 30
300.0
 70
    64
  0
SEQEND
  5
382
100
AcDbEntity
  8
VZ1
  0
POLYLINE
  5
383
100
AcDbEntity
  8
VZ1
100
AcDbPolygonMesh
 66
     1
 10
0.0
 20
0.0
 30
0.0
 70
    16
 71
     6
 72
     3
  0
VERTEX
  5
384
100
AcDbEntity
  8
VZ1
100
AcDbVertex
100
AcDbPolygonMeshVertex
 10
780.0
 20
-355.0
 30
-5.0
 70
    64
  0
VERTEX
  5
385
100
AcDbEntity
  8
VZ1
100
AcDbVertex
100
AcDbPolygonMeshVertex
 10
780.0
 20
-355.0
 30
-305.0
 70
    64
  0
VERTEX
  5
386
100
AcDbEntity
  8
VZ1
100
AcDbVertex
100
AcDbPolygonMeshVertex
 10
780.0
 20
-355.0
 30
-305.0
 70
    64
  0
VERTEX
  5
387
100
AcDbEntity
  8
VZ1
100
AcDbVertex
100
AcDbPolygonMeshVertex
 10
745.0
 20
-355.0
 30
-5.0
 70
    64
  0
VERTEX
  5
388
100
AcDbEntity
  8
VZ1
100
AcDbVertex
100
AcDbPolygonMeshVertex
 10
745.0
 20
-355.0
 30
-305.0
 70
    64
  0
VERTEX
  5
389
100
AcDbEntity
  8
VZ1
100
AcDbVertex
100
AcDbPolygonMeshVertex
 10
745.0
 20
-355.0
 30
-305.0
 70
    64
  0
VERTEX
  5
38A
100
AcDbEntity
  8
VZ1
100
AcDbVertex
100
AcDbPolygonMeshVertex
 10
745.0
 20
355.0
 30
-5.0
 70
    64
  0
VERTEX
  5
38B
100
AcDbEntity
  8
VZ1
100
AcDbVertex
100
AcDbPolygonMeshVertex
 10
745.0
 20
355.0
 30
-305.0
 70
    64
  0
VERTEX
  5
38C
100
AcDbEntity
  8
VZ1
100
AcDbVertex
100
AcDbPolygonMeshVertex
 10
745.0
 20
-355.0
 30
-305.0
 70
    64
  0
VERTEX
  5
38D
100
AcDbEntity
  8
VZ1
100
AcDbVertex
100
AcDbPolygonMeshVertex
 10
780.0
 20
355.0
 30
-5.0
 70
    64
  0
VERTEX
  5
38E
100
AcDbEntity
  8
VZ1
100
AcDbVertex
100
AcDbPolygonMeshVertex
 10
780.0
 20
355.0
 30
-305.0
 70
    64
  0
VERTEX
  5
38F
100
AcDbEntity
  8
VZ1
100
AcDbVertex
100
AcDbPolygonMeshVertex
 10
780.0
 20
-355.0
 30
-305.0
 70
    64
  0
VERTEX
  5
390
100
AcDbEntity
  8
VZ1
100
AcDbVertex
100
AcDbPolygonMeshVertex
 10
780.0
 20
355.0
 30
-5.0
 70
    64
  0
VERTEX
  5
391
100
AcDbEntity
  8
VZ1
100
AcDbVertex
100
AcDbPolygonMeshVertex
 10
780.0
 20
355.0
 30
-5.0
 70
    64
  0
VERTEX
  5
392
100
AcDbEntity
  8
VZ1
100
AcDbVertex
100
AcDbPolygonMeshVertex
 10
780.0
 20
-355.0
 30
-5.0
 70
    64
  0
VERTEX
  5
393
100
AcDbEntity
  8
VZ1
100
AcDbVertex
100
AcDbPolygonMeshVertex
 10
745.0
 20
355.0
 30
-5.0
 70
    64
  0
VERTEX
  5
394
100
AcDbEntity
  8
VZ1
100
AcDbVertex
100
AcDbPolygonMeshVertex
 10
745.0
 20
355.0
 30
-5.0
 70
    64
  0
VERTEX
  5
395
100
AcDbEntity
  8
VZ1
100
AcDbVertex
100
AcDbPolygonMeshVertex
 10
745.0
 20
-355.0
 30
-5.0
 70
    64
  0
SEQEND
  5
396
100
AcDbEntity
  8
VZ1
  0
3DSOLID
  5
399
100
AcDbEntity
  8
VZ1
100
AcDbModelerGeometry
 70
     1
  1
noi kl n o          
  1
=0;& {n {m {rn {rn |
  1
9@=0;&r3(;r>++-6= {rn {l {rn {o |
  1
3*2/ {k {rn {j {o |
  1
-:9@)+r3(;r>++-6= {rn {rn {n {o {i {h |
  1
-:9@)+r3(;r>++-6= {rn {rn {rn {m {i {h |
  1
,7:33 {g {rn {rn {f {m |
  1
-:961:2:1+ {rn o o o o kqhlijliomiooofhii o o o m |
  1
):-+:'@+:2/3>+: {rn l o n g |
  1
-:9@)+r3(;r>++-6= {rn {rn {rn {j {i {h |
  1
9><: {no {nn {nm {j {rn {nl 90-(>-; ,6183: |
  1
99><:r3(;r>++-6= {rn {nk {rn {f |
  1
9><: {nj {ni {nh {j {rn {ng 90-(>-; ,6183: |
  1
300/ {rn {nf {mo {f |
  1
<01:r,*-9><: {rn lfo o koo o o n hj o o n V V o n o V V V V |
  1
-:9@)+r3(;r>++-6= {rn {rn {no {f {i {rn |
  1
99><:r3(;r>++-6= {rn {mn {rn {nn |
  1
9><: {mm {rn {ml {j {rn {mk 90-(>-; ,6183: |
  1
300/ {rn {rn {mj {nn |
  1
/3>1:r,*-9><: {rn lfo o ljo o o rn rn o o o V V V V |
  1
300/ {rn {rn {mi {f |
  1
<0:;8: {mh {mo {mo {mj {mg n {nm {rn |
  1
-:9@)+r3(;r>++-6= {rn {rn {nj {nn {i {rn |
  1
99><:r3(;r>++-6= {rn {mf {rn {ni |
  1
300/ {rn {rn {lo {ni |
  1
/3>1:r,*-9><: {rn lfo o kjo o o n n o o o V V V V |
  1
<0:;8: {ln {mj {mj {mo {mg o {nh {rn |
  1
<0:;8: {lm {mi {mi {lo {ll n {nf {rn |
  1
<0/>-r3(;r>++-6= {rn {rn {rn {mo |
  1
:;8: {lk {lj {lj {mj {li o |
  1
-:9@)+r3(;r>++-6= {rn {rn {mm {ni {i {rn |
  1
<0:;8: {lh {lo {lo {mi {ll o {ml {rn |
  1
<0/>-r3(;r>++-6= {rn {rn {rn {mj |
  1
<0/>-r3(;r>++-6= {rn {rn {rn {mi |
  1
:;8: {lg {lf {lf {lo {ko o |
  1
:/>-r3(;r>++-6= {rn {rn {rn {mg |
  1
):-+:' {rn {mg {kn |
  1
:336/,:r<*-): {rn lfo o ljo o o rn hj o o n V V |
  1
<0/>-r3(;r>++-6= {rn {rn {rn {lo |
  1
:/>-r3(;r>++-6= {rn {rn {rn {ll |
  1
):-+:' {rn {ll {km |
  1
:336/,:r<*-): {rn lfo o kjo o o n hj o o n V V |
  1
/061+ {rn kij o ljo |
  1
/061+ {rn kij o kjo |
  0
3DSOLID
  5
39A
100
AcDbEntity
  8
VZ1
100
AcDbModelerGeometry
 70
     1
  1
noi kl n o          
  1
=0;& {n {m {rn {rn |
  1
9@=0;&r3(;r>++-6= {rn {l {rn {o |
  1
3*2/ {k {rn {j {o |
  1
-:9@)+r3(;r>++-6= {rn {rn {n {o {i {h |
  1
-:9@)+r3(;r>++-6= {rn {rn {rn {m {i {h |
  1
,7:33 {g {rn {rn {f {m |
  1
-:961:2:1+ {rn o o o o kqhlijliomiooofhii o o o m |
  1
):-+:'@+:2/3>+: {rn l o n g |
  1
-:9@)+r3(;r>++-6= {rn {rn {rn {j {i {h |
  1
9><: {no {nn {nm {j {rn {nl 90-(>-; ,6183: |
  1
99><:r3(;r>++-6= {rn {nk {rn {f |
  1
9><: {nj {ni {nh {j {rn {ng 90-(>-; ,6183: |
  1
300/ {rn {nf {mo {f |
  1
<01:r,*-9><: {rn lfo o kio o o n ho o o n V V o n o V V V V |
  1
-:9@)+r3(;r>++-6= {rn {rn {no {f {i {rn |
  1
99><:r3(;r>++-6= {rn {mn {rn {nn |
  1
9><: {mm {rn {ml {j {rn {mk 90-(>-; ,6183: |
  1
300/ {rn {rn {mj {nn |
  1
/3>1:r,*-9><: {rn lfo o kjo o o rn rn o o o V V V V |
  1
300/ {rn {rn {mi {f |
  1
<0:;8: {mh {mo {mo {mj {mg n {nm {rn |
  1
-:9@)+r3(;r>++-6= {rn {rn {nj {nn {i {rn |
  1
99><:r3(;r>++-6= {rn {mf {rn {ni |
  1
300/ {rn {rn {lo {ni |
  1
/3>1:r,*-9><: {rn lfo o kho o o n n o o o V V V V |
  1
<0:;8: {ln {mj {mj {mo {mg o {nh {rn |
  1
<0:;8: {lm {mi {mi {lo {ll n {nf {rn |
  1
<0/>-r3(;r>++-6= {rn {rn {rn {mo |
  1
:;8: {lk {lj {lj {mj {li o |
  1
-:9@)+r3(;r>++-6= {rn {rn {mm {ni {i {rn |
  1
<0:;8: {lh {lo {lo {mi {ll o {ml {rn |
  1
<0/>-r3(;r>++-6= {rn {rn {rn {mj |
  1
<0/>-r3(;r>++-6= {rn {rn {rn {mi |
  1
:;8: {lg {lf {lf {lo {ko o |
  1
:/>-r3(;r>++-6= {rn {rn {rn {mg |
  1
):-+:' {rn {mg {kn |
  1
:336/,:r<*-): {rn lfo o kjo o o rn ho o o n V V |
  1
<0/>-r3(;r>++-6= {rn {rn {rn {lo |
  1
:/>-r3(;r>++-6= {rn {rn {rn {ll |
  1
):-+:' {rn {ll {km |
  1
:336/,:r<*-): {rn lfo o kho o o n ho o o n V V |
  1
/061+ {rn kio o kjo |
  1
/061+ {rn kio o kho |
  0
3DSOLID
  5
39F
100
AcDbEntity
  8
VZ1
100
AcDbModelerGeometry
 70
     1
  1
noi kl n o          
  1
=0;& {n {m {rn {rn |
  1
9@=0;&r3(;r>++-6= {rn {l {rn {o |
  1
3*2/ {k {rn {j {o |
  1
-:9@)+r3(;r>++-6= {rn {rn {n {o {i {h |
  1
-:9@)+r3(;r>++-6= {rn {rn {rn {m {i {h |
  1
,7:33 {g {rn {rn {f {m |
  1
-:961:2:1+ {rn o o o o kqhlijliomiooofhii o o o m |
  1
):-+:'@+:2/3>+: {rn l o n g |
  1
-:9@)+r3(;r>++-6= {rn {rn {rn {j {i {h |
  1
9><: {no {nn {nm {j {rn {nl 90-(>-; ,6183: |
  1
99><:r3(;r>++-6= {rn {nk {rn {f |
  1
9><: {nj {ni {nh {j {rn {ng 90-(>-; ,6183: |
  1
300/ {rn {nf {mo {f |
  1
<01:r,*-9><: {rn lfo o lkhqj o o n fj o o n V V o n o V V V V |
  1
-:9@)+r3(;r>++-6= {rn {rn {no {f {i {rn |
  1
99><:r3(;r>++-6= {rn {mn {rn {nn |
  1
9><: {mm {rn {ml {j {rn {mk 90-(>-; ,6183: |
  1
300/ {rn {rn {mj {nn |
  1
/3>1:r,*-9><: {rn lfo o lkj o o rn rn o o o V V V V |
  1
300/ {rn {rn {mi {f |
  1
<0:;8: {mh {mo {mo {mj {mg n {nm {rn |
  1
-:9@)+r3(;r>++-6= {rn {rn {nj {nn {i {rn |
  1
99><:r3(;r>++-6= {rn {mf {rn {ni |
  1
300/ {rn {rn {lo {ni |
  1
/3>1:r,*-9><: {rn lfo o ljo o o n n o o o V V V V |
  1
<0:;8: {ln {mj {mj {mo {mg o {nh {rn |
  1
<0:;8: {lm {mi {mi {lo {ll n {nf {rn |
  1
<0/>-r3(;r>++-6= {rn {rn {rn {mo |
  1
:;8: {lk {lj {lj {mj {li o |
  1
-:9@)+r3(;r>++-6= {rn {rn {mm {ni {i {rn |
  1
<0:;8: {lh {lo {lo {mi {ll o {ml {rn |
  1
<0/>-r3(;r>++-6= {rn {rn {rn {mj |
  1
<0/>-r3(;r>++-6= {rn {rn {rn {mi |
  1
:;8: {lg {lf {lf {lo {ko o |
  1
:/>-r3(;r>++-6= {rn {rn {rn {mg |
  1
):-+:' {rn {mg {kn |
  1
:336/,:r<*-): {rn lfo o lkj o o rn fj o o n V V |
  1
<0/>-r3(;r>++-6= {rn {rn {rn {lo |
  1
:/>-r3(;r>++-6= {rn {rn {rn {ll |
  1
):-+:' {rn {ll {km |
  1
:336/,:r<*-): {rn lfo o ljo o o n fj o o n V V |
  1
/061+ {rn kgj o lkj |
  1
/061+ {rn kgj o ljo |
  0
ENDSEC
  0
SECTION
  2
OBJECTS
  0
DICTIONARY
  5
1A
100
AcDbDictionary
  3
ACAD_GROUP
350
18
  3
ACAD_MLINESTYLE
350
19
  0
DICTIONARY
  5
18
102
{ACAD_REACTORS
330
1A
102
}
100
AcDbDictionary
  0
DICTIONARY
  5
19
102
{ACAD_REACTORS
330
1A
102
}
100
AcDbDictionary
  3
STANDARD
350
1D
  0
MLINESTYLE
  5
1D
102
{ACAD_REACTORS
330
19
102
}
100
AcDbMlineStyle
  2
STANDARD
 70
     0
  3

 62
   256
 51
90.0
 52
90.0
 71
     2
 49
0.5
 62
   256
  6
BYLAYER
 49
-0.5
 62
   256
  6
BYLAYER
  0
ENDSEC
  0
EOF
