  0
SECTION
  2
HEADER
  9
$ACADVER
  1
AC1014
  9
$ACADMAINTVER
 70
     0
  9
$DWGCODEPAGE
  3
ANSI_1250
  9
$INSBASE
 10
0.0
 20
0.0
 30
0.0
  9
$EXTMIN
 10
0.0
 20
-232.75
 30
-232.75
  9
$EXTMAX
 10
191.625
 20
232.75
 30
232.75
  9
$LIMMIN
 10
0.0
 20
0.0
  9
$LIMMAX
 10
420.0
 20
297.0
  9
$ORTHOMODE
 70
     0
  9
$REGENMODE
 70
     1
  9
$FILLMODE
 70
     0
  9
$QTEXTMODE
 70
     0
  9
$MIRRTEXT
 70
     1
  9
$DRAGMODE
 70
     2
  9
$LTSCALE
 40
1.0
  9
$OSMODE
 70
   175
  9
$ATTMODE
 70
     1
  9
$TEXTSIZE
 40
1.0
  9
$TRACEWID
 40
1.0
  9
$TEXTSTYLE
  7
ROMANS
  9
$CLAYER
  8
VZ1
  9
$CELTYPE
  6
CONTINUOUS
  9
$CECOLOR
 62
   256
  9
$CELTSCALE
 40
1.0
  9
$DELOBJ
 70
     1
  9
$DISPSILH
 70
     0
  9
$DIMSCALE
 40
1.0
  9
$DIMASZ
 40
2.0
  9
$DIMEXO
 40
0.625
  9
$DIMDLI
 40
3.75
  9
$DIMRND
 40
1.0
  9
$DIMDLE
 40
0.0
  9
$DIMEXE
 40
1.0
  9
$DIMTP
 40
0.0
  9
$DIMTM
 40
0.0
  9
$DIMTXT
 40
2.5
  9
$DIMCEN
 40
-100.0
  9
$DIMTSZ
 40
0.0
  9
$DIMTOL
 70
     0
  9
$DIMLIM
 70
     0
  9
$DIMTIH
 70
     0
  9
$DIMTOH
 70
     0
  9
$DIMSE1
 70
     0
  9
$DIMSE2
 70
     0
  9
$DIMTAD
 70
     1
  9
$DIMZIN
 70
     8
  9
$DIMBLK
  1

  9
$DIMASO
 70
     1
  9
$DIMSHO
 70
     1
  9
$DIMPOST
  1

  9
$DIMAPOST
  1

  9
$DIMALT
 70
     0
  9
$DIMALTD
 70
     4
  9
$DIMALTF
 40
0.0394
  9
$DIMLFAC
 40
1.0
  9
$DIMTOFL
 70
     1
  9
$DIMTVP
 40
2.0
  9
$DIMTIX
 70
     0
  9
$DIMSOXD
 70
     0
  9
$DIMSAH
 70
     1
  9
$DIMBLK1
  1
_OBLIQUE
  9
$DIMBLK2
  1
_OBLIQUE
  9
$DIMSTYLE
  2
STANEK
  9
$DIMCLRD
 70
     1
  9
$DIMCLRE
 70
     1
  9
$DIMCLRT
 70
     1
  9
$DIMTFAC
 40
2.2
  9
$DIMGAP
 40
0.625
  9
$DIMJUST
 70
     0
  9
$DIMSD1
 70
     0
  9
$DIMSD2
 70
     0
  9
$DIMTOLJ
 70
     1
  9
$DIMTZIN
 70
     8
  9
$DIMALTZ
 70
     8
  9
$DIMALTTZ
 70
     8
  9
$DIMFIT
 70
     5
  9
$DIMUPT
 70
     0
  9
$DIMUNIT
 70
     2
  9
$DIMDEC
 70
     4
  9
$DIMTDEC
 70
     4
  9
$DIMALTU
 70
     2
  9
$DIMALTTD
 70
     4
  9
$DIMTXSTY
  7
ROMANS
  9
$DIMAUNIT
 70
     0
  9
$LUNITS
 70
     2
  9
$LUPREC
 70
     4
  9
$SKETCHINC
 40
1.0
  9
$FILLETRAD
 40
10.0
  9
$AUNITS
 70
     0
  9
$AUPREC
 70
     0
  9
$MENU
  1
.
  9
$ELEVATION
 40
0.0
  9
$PELEVATION
 40
0.0
  9
$THICKNESS
 40
0.0
  9
$LIMCHECK
 70
     0
  9
$BLIPMODE
 70
     0
  9
$CHAMFERA
 40
10.0
  9
$CHAMFERB
 40
10.0
  9
$CHAMFERC
 40
0.0
  9
$CHAMFERD
 40
0.0
  9
$SKPOLY
 70
     0
  9
$TDCREATE
 40
2450990.465911806
  9
$TDUPDATE
 40
2452948.707943750
  9
$TDINDWG
 40
0.3440241898
  9
$TDUSRTIMER
 40
0.3440241898
  9
$USRTIMER
 70
     1
  9
$ANGBASE
 50
0.0
  9
$ANGDIR
 70
     0
  9
$PDMODE
 70
     3
  9
$PDSIZE
 40
0.0
  9
$PLINEWID
 40
0.0
  9
$COORDS
 70
     1
  9
$SPLFRAME
 70
     0
  9
$SPLINETYPE
 70
     6
  9
$SPLINESEGS
 70
     8
  9
$ATTDIA
 70
     0
  9
$ATTREQ
 70
     1
  9
$HANDLING
 70
     1
  9
$HANDSEED
  5
11D
  9
$SURFTAB1
 70
    12
  9
$SURFTAB2
 70
     6
  9
$SURFTYPE
 70
     6
  9
$SURFU
 70
     6
  9
$SURFV
 70
     6
  9
$UCSNAME
  2

  9
$UCSORG
 10
0.0
 20
0.0
 30
0.0
  9
$UCSXDIR
 10
1.0
 20
0.0
 30
0.0
  9
$UCSYDIR
 10
0.0
 20
1.0
 30
0.0
  9
$PUCSNAME
  2

  9
$PUCSORG
 10
0.0
 20
0.0
 30
0.0
  9
$PUCSXDIR
 10
1.0
 20
0.0
 30
0.0
  9
$PUCSYDIR
 10
0.0
 20
1.0
 30
0.0
  9
$USERI1
 70
     1
  9
$USERI2
 70
     6
  9
$USERI3
 70
     2
  9
$USERI4
 70
     2
  9
$USERI5
 70
     6
  9
$USERR1
 40
281.0
  9
$USERR2
 40
321.0
  9
$USERR3
 40
0.0
  9
$USERR4
 40
0.0
  9
$USERR5
 40
0.0
  9
$WORLDVIEW
 70
     1
  9
$SHADEDGE
 70
     3
  9
$SHADEDIF
 70
    70
  9
$TILEMODE
 70
     1
  9
$MAXACTVP
 70
    48
  9
$PINSBASE
 10
0.0
 20
0.0
 30
0.0
  9
$PLIMCHECK
 70
     0
  9
$PEXTMIN
 10
1.000000E+20
 20
1.000000E+20
 30
1.000000E+20
  9
$PEXTMAX
 10
-1.000000E+20
 20
-1.000000E+20
 30
-1.000000E+20
  9
$PLIMMIN
 10
0.0
 20
0.0
  9
$PLIMMAX
 10
420.0
 20
297.0
  9
$UNITMODE
 70
     0
  9
$VISRETAIN
 70
     1
  9
$PLINEGEN
 70
     0
  9
$PSLTSCALE
 70
     1
  9
$TREEDEPTH
 70
  3020
  9
$PICKSTYLE
 70
     1
  9
$CMLSTYLE
  2
STANDARD
  9
$CMLJUST
 70
     0
  9
$CMLSCALE
 40
1.0
  9
$PROXYGRAPHICS
 70
     1
  9
$MEASUREMENT
 70
     0
  0
ENDSEC
  0
SECTION
  2
CLASSES
  0
CLASS
  1
DICTIONARYVAR
  2
AcDbDictionaryVar
  3
"AutoCAD"
 90
        0
280
     0
281
     0
  0
ENDSEC
  0
SECTION
  2
TABLES
  0
TABLE
  2
VPORT
  5
12
100
AcDbSymbolTable
 70
     2
  0
VPORT
  5
11C
100
AcDbSymbolTableRecord
100
AcDbViewportTableRecord
  2
*ACTIVE
 70
     0
 10
0.0
 20
0.0
 11
1.0
 21
1.0
 12
51.638522
 22
5.790821
 13
0.0
 23
0.0
 14
10.0
 24
10.0
 15
10.0
 25
10.0
 16
-1.460931
 26
-4.168734
 36
1.182686
 17
0.0
 27
0.0
 37
0.0
 40
648.566644
 41
1.508571
 42
50.0
 43
0.0
 44
0.0
 50
0.0
 51
0.0
 71
     0
 72
   100
 73
     1
 74
     1
 75
     0
 76
     0
 77
     0
 78
     0
  0
ENDTAB
  0
TABLE
  2
LTYPE
  5
D
100
AcDbSymbolTable
 70
     1
  0
LTYPE
  5
E
100
AcDbSymbolTableRecord
100
AcDbLinetypeTableRecord
  2
BYBLOCK
 70
     0
  3

 72
    65
 73
     0
 40
0.0
  0
LTYPE
  5
F
100
AcDbSymbolTableRecord
100
AcDbLinetypeTableRecord
  2
BYLAYER
 70
     0
  3

 72
    65
 73
     0
 40
0.0
  0
LTYPE
  5
5
100
AcDbSymbolTableRecord
100
AcDbLinetypeTableRecord
  2
CONTINUOUS
 70
     0
  3
Solid line
 72
    65
 73
     0
 40
0.0
  0
ENDTAB
  0
TABLE
  2
LAYER
  5
A
100
AcDbSymbolTable
 70
     2
  0
LAYER
  5
4
100
AcDbSymbolTableRecord
100
AcDbLayerTableRecord
  2
0
 70
     0
 62
     7
  6
CONTINUOUS
  0
LAYER
  5
1B
100
AcDbSymbolTableRecord
100
AcDbLayerTableRecord
  2
VZ1
 70
     0
 62
     7
  6
CONTINUOUS
  0
ENDTAB
  0
TABLE
  2
STYLE
  5
B
100
AcDbSymbolTable
 70
     2
  0
STYLE
  5
C
100
AcDbSymbolTableRecord
100
AcDbTextStyleTableRecord
  2
STANDARD
 70
     0
 40
0.0
 41
0.8
 50
0.0
 71
     0
 42
2.5
  3
txt.shx
  4

  0
STYLE
  5
1C
100
AcDbSymbolTableRecord
100
AcDbTextStyleTableRecord
  2
ROMANS
 70
     0
 40
50.0
 41
0.8
 50
0.0
 71
     0
 42
1.0
  3
romans.shx
  4

  0
ENDTAB
  0
TABLE
  2
VIEW
  5
10
100
AcDbSymbolTable
 70
     0
  0
ENDTAB
  0
TABLE
  2
UCS
  5
11
100
AcDbSymbolTable
 70
     0
  0
ENDTAB
  0
TABLE
  2
APPID
  5
14
100
AcDbSymbolTable
 70
     1
  0
APPID
  5
15
100
AcDbSymbolTableRecord
100
AcDbRegAppTableRecord
  2
ACAD
 70
     0
  0
ENDTAB
  0
TABLE
  2
DIMSTYLE
  5
16
100
AcDbSymbolTable
 70
     1
  0
DIMSTYLE
105
1E
100
AcDbSymbolTableRecord
100
AcDbDimStyleTableRecord
  2
STANEK
 70
     0
  3

  4

  5

  6
_OBLIQUE
  7
_OBLIQUE
 40
0.0
 41
2.0
 42
0.625
 43
3.75
 44
1.0
 45
1.0
 46
0.0
 47
0.0
 48
0.0
140
2.2
141
-100.0
142
0.0
143
0.0394
144
2.2
145
2.0
146
2.2
147
0.625
 71
     0
 72
     0
 73
     0
 74
     0
 75
     0
 76
     0
 77
     1
 78
     8
170
     0
171
     4
172
     1
173
     1
174
     0
175
     0
176
     1
177
     1
178
     1
270
     2
271
     4
272
     4
273
     2
274
     4
340
1C
275
     0
280
     0
281
     0
282
     0
283
     1
284
     8
285
     8
286
     8
287
     5
288
     0
  0
ENDTAB
  0
TABLE
  2
BLOCK_RECORD
  5
1
100
AcDbSymbolTable
 70
     4
  0
BLOCK_RECORD
  5
2
100
AcDbSymbolTableRecord
100
AcDbBlockTableRecord
  2
*MODEL_SPACE
  0
BLOCK_RECORD
  5
7
100
AcDbSymbolTableRecord
100
AcDbBlockTableRecord
  2
*PAPER_SPACE
  0
BLOCK_RECORD
  5
1F
100
AcDbSymbolTableRecord
100
AcDbBlockTableRecord
  2
_OBLIQUE
  0
BLOCK_RECORD
  5
6C
100
AcDbSymbolTableRecord
100
AcDbBlockTableRecord
  2
VRTULE
  0
BLOCK_RECORD
  5
24
100
AcDbSymbolTableRecord
100
AcDbBlockTableRecord
  2
HXM-200_3D
  0
BLOCK_RECORD
  5
85
100
AcDbSymbolTableRecord
100
AcDbBlockTableRecord
  2
A
  0
ENDTAB
  0
ENDSEC
  0
SECTION
  2
BLOCKS
  0
BLOCK
  5
3
100
AcDbEntity
  8
0
 62
     1
100
AcDbBlockBegin
  2
*MODEL_SPACE
 70
     0
 10
0.0
 20
0.0
 30
0.0
  3
*MODEL_SPACE
  1

  0
ENDBLK
  5
6
100
AcDbEntity
  8
0
 62
     1
100
AcDbBlockEnd
  0
BLOCK
  5
8
100
AcDbEntity
 67
     1
  8
0
 62
     1
100
AcDbBlockBegin
  2
*PAPER_SPACE
 70
     0
 10
0.0
 20
0.0
 30
0.0
  3
*PAPER_SPACE
  1

  0
ENDBLK
  5
9
100
AcDbEntity
 67
     1
  8
0
 62
     1
100
AcDbBlockEnd
  0
BLOCK
  5
21
100
AcDbEntity
  8
0
100
AcDbBlockBegin
  2
_OBLIQUE
 70
     0
 10
0.0
 20
0.0
 30
0.0
  3
_OBLIQUE
  1

  0
LINE
  5
20
100
AcDbEntity
  8
0
  6
BYBLOCK
 62
     0
100
AcDbLine
 10
-0.5
 20
-0.5
 30
0.0
 11
0.5
 21
0.5
 31
0.0
  0
ENDBLK
  5
22
100
AcDbEntity
  8
0
100
AcDbBlockEnd
  0
BLOCK
  5
7F
100
AcDbEntity
  8
0
100
AcDbBlockBegin
  2
VRTULE
 70
     0
 10
0.0
 20
0.0
 30
0.0
  3
VRTULE
  1

  0
LINE
  5
6D
100
AcDbEntity
  8
VZ1
  6
CONTINUOUS
100
AcDbLine
 10
0.0
 20
28.822222
 30
1.802979
 11
0.0
 21
94.218377
 31
5.893847
210
1.0
220
-0.0000000000000002
230
0.0000000000000001
  0
LINE
  5
6E
100
AcDbEntity
  8
VZ1
  6
CONTINUOUS
100
AcDbLine
 10
0.0
 20
25.714583
 30
-13.142733
 11
0.0
 21
84.059664
 31
-42.962925
210
1.0
220
-0.0000000000000002
230
0.0000000000000001
  0
LINE
  5
6F
100
AcDbEntity
  8
VZ1
  6
CONTINUOUS
100
AcDbLine
 10
0.0
 20
20.445725
 30
20.394694
 11
0.0
 21
66.836035
 31
66.669217
210
1.0
220
-0.0000000000000002
230
0.0000000000000001
  0
ARC
  5
70
100
AcDbEntity
  8
VZ1
  6
CONTINUOUS
100
AcDbCircle
 10
0.0
 20
0.0
 30
0.0
 40
94.402542
210
1.0
220
0.0
230
-0.0000000000000002
100
AcDbArc
 50
44.928408
 51
75.579483
  0
CIRCLE
  5
71
100
AcDbEntity
  8
VZ1
  6
CONTINUOUS
100
AcDbCircle
 10
0.0
 20
0.0
 30
0.0
 40
22.66879
210
1.0
220
0.0
230
-0.0000000000000002
  0
CIRCLE
  5
72
100
AcDbEntity
  8
VZ1
  6
CONTINUOUS
100
AcDbCircle
 10
0.0
 20
0.0
 30
0.0
 40
28.87856
210
1.0
220
0.0
230
-0.0000000000000002
  0
POINT
  5
73
100
AcDbEntity
  8
VZ1
  6
CONTINUOUS
100
AcDbPoint
 10
0.0
 20
0.0
 30
0.0
210
1.0
220
-0.0000000000000002
230
0.0000000000000001
 50
0.0
  0
LINE
  5
74
100
AcDbEntity
  8
VZ1
  6
CONTINUOUS
100
AcDbLine
 10
0.0
 20
-28.52864
 30
-4.481958
 11
0.0
 21
-93.25867
 31
-14.651294
210
1.0
220
-0.0000000000000002
230
0.0000000000000001
  0
ARC
  5
75
100
AcDbEntity
  8
VZ1
  6
CONTINUOUS
100
AcDbCircle
 10
0.0
 20
0.0
 30
0.0
 40
94.402542
210
1.0
220
0.0
230
-0.0000000000000002
100
AcDbArc
 50
188.928408
 51
219.579483
  0
LINE
  5
76
100
AcDbEntity
  8
VZ1
  6
CONTINUOUS
100
AcDbLine
 10
0.0
 20
10.621291
 30
-26.854411
 11
0.0
 21
34.720461
 31
-87.785703
210
1.0
220
-0.0000000000000002
230
0.0000000000000001
  0
LINE
  5
77
100
AcDbEntity
  8
VZ1
  6
CONTINUOUS
100
AcDbLine
 10
0.0
 20
-4.553239
 30
-28.51735
 11
0.0
 21
-14.884305
 31
-93.221765
210
1.0
220
-0.0000000000000002
230
0.0000000000000001
  0
ARC
  5
78
100
AcDbEntity
  8
VZ1
  6
CONTINUOUS
100
AcDbCircle
 10
0.0
 20
0.0
 30
0.0
 40
94.402542
210
1.0
220
0.0
230
-0.0000000000000002
100
AcDbArc
 50
260.928408
 51
291.579483
  0
LINE
  5
79
100
AcDbEntity
  8
VZ1
  6
CONTINUOUS
100
AcDbLine
 10
0.0
 20
-22.257903
 30
-18.399918
 11
0.0
 21
-72.759952
 31
-60.148395
210
1.0
220
-0.0000000000000002
230
0.0000000000000001
  0
LINE
  5
7A
100
AcDbEntity
  8
VZ1
  6
CONTINUOUS
100
AcDbLine
 10
0.0
 20
-24.377432
 30
15.482637
 11
0.0
 21
-79.688584
 31
50.61195
210
1.0
220
-0.0000000000000002
230
0.0000000000000001
  0
ARC
  5
7B
100
AcDbEntity
  8
VZ1
  6
CONTINUOUS
100
AcDbCircle
 10
0.0
 20
0.0
 30
0.0
 40
94.402542
210
1.0
220
0.0
230
-0.0000000000000002
100
AcDbArc
 50
116.928408
 51
147.579483
  0
LINE
  5
7C
100
AcDbEntity
  8
VZ1
  6
CONTINUOUS
100
AcDbLine
 10
0.0
 20
-13.07843
 30
25.747347
 11
0.0
 21
-42.752723
 31
84.166767
210
1.0
220
-0.0000000000000002
230
0.0000000000000001
  0
LINE
  5
7D
100
AcDbEntity
  8
VZ1
  6
CONTINUOUS
100
AcDbLine
 10
0.0
 20
7.191822
 30
27.968713
 11
0.0
 21
23.509698
 31
91.4283
210
1.0
220
-0.0000000000000002
230
0.0000000000000001
  0
ARC
  5
7E
100
AcDbEntity
  8
VZ1
  6
CONTINUOUS
100
AcDbCircle
 10
0.0
 20
0.0
 30
0.0
 40
94.402542
210
1.0
220
0.0
230
-0.0000000000000002
100
AcDbArc
 50
332.928408
 51
3.579483
  0
ENDBLK
  5
80
100
AcDbEntity
  8
0
100
AcDbBlockEnd
  0
BLOCK
  5
69
100
AcDbEntity
  8
0
100
AcDbBlockBegin
  2
HXM-200_3D
 70
     0
 10
0.0
 20
0.0
 30
0.0
  3
HXM-200_3D
  1

  0
3DSOLID
  5
25
100
AcDbEntity
  8
VZ1
  6
CONTINUOUS
100
AcDbModelerGeometry
 70
     1
  1
noi kl n o          
  1
=0;& {n {m {rn {rn |
  1
9@=0;&r3(;r>++-6= {rn {l {rn {o |
  1
3*2/ {k {rn {j {o |
  1
-:9@)+r3(;r>++-6= {rn {rn {n {o {i {h |
  1
-:9@)+r3(;r>++-6= {rn {rn {rn {m {i {h |
  1
,7:33 {g {rn {rn {f {m |
  1
-:961:2:1+ {rn o o o o nqgnkkmmlifoolmfjf o o o m |
  1
):-+:'@+:2/3>+: {rn l o n g |
  1
-:9@)+r3(;r>++-6= {rn {rn {rn {j {i {h |
  1
9><: {no {nn {nm {j {rn {nl 90-(>-; ,6183: |
  1
99><:r3(;r>++-6= {rn {nk {rn {f |
  1
9><: {nj {ni {nh {j {rn {ng 90-(>-; ,6183: |
  1
300/ {rn {nf {mo {f |
  1
<01:r,*-9><: {rn lk o rmqhjjlikmfinoolkgg:ronj n o rnqglifofjlohlljijf:roni rmqomoiookglgoifmmj:ronk nqjhhhmngnokkmomli:rolo rnno n V V o n o V V V V |
  1
-:9@)+r3(;r>++-6= {rn {rn {no {f {i {rn |
  1
99><:r3(;r>++-6= {rn {mn {rn {nn |
  1
9><: {mm {rn {ml {j {rn {mk 90-(>-; ,6183: |
  1
300/ {rn {rn {mj {nn |
  1
/3>1:r,*-9><: {rn mk o rfqngkjkhijliihgmfk:roni rn o nqglifofjlohlljijf:roni nqglifofjlohlljijf:roni o n o V V V V |
  1
300/ {rn {rn {mi {f |
  1
<0:;8: {mh {mo {mo {mj {mg n {nm {rn |
  1
-:9@)+r3(;r>++-6= {rn {rn {nj {nn {i {rn |
  1
99><:r3(;r>++-6= {rn {mf {rn {ni |
  1
300/ {rn {rn {lo {ni |
  1
/3>1:r,*-9><: {rn kkqooooooooooooooh o rkqjfmmhlgmigllfnkh:ronj n o rnqglifofjlohlljijf:roni rnqglifofjlohlljijf:roni o rn o V V V V |
  1
<0:;8: {ln {mj {mj {mo {mg o {nh {rn |
  1
<0:;8: {lm {mi {mi {lo {ll n {nf {rn |
  1
<0/>-r3(;r>++-6= {rn {rn {rn {mo |
  1
:;8: {lk {lj {lj {mj {li o |
  1
-:9@)+r3(;r>++-6= {rn {rn {mm {ni {i {rn |
  1
<0:;8: {lh {lo {lo {mi {ll o {ml {rn |
  1
<0/>-r3(;r>++-6= {rn {rn {rn {mj |
  1
<0/>-r3(;r>++-6= {rn {rn {rn {mi |
  1
:;8: {lg {lf {lf {lo {ko o |
  1
:/>-r3(;r>++-6= {rn {rn {rn {mg |
  1
):-+:' {rn {mg {kn |
  1
:336/,:r<*-): {rn mk o rfqngkjkhijliihgmfk:roni rn o nqglifofjlohlljijf:roni rmqomoiookglgoifmmj:ronk nqjhhhmngnokkmomli:rolo rnno n V V |
  1
<0/>-r3(;r>++-6= {rn {rn {rn {lo |
  1
:/>-r3(;r>++-6= {rn {rn {rn {ll |
  1
):-+:' {rn {ll {km |
  1
:336/,:r<*-): {rn kkqooooooooooooooh o rkqjfmmhlgmigllfnkh:ronj n o rnqglifofjlohlljijf:roni rmqomoiookglgoifmmj:ronk nqjhhhmngnokkmomli:rolo rnno n V V |
  1
/061+ {rn mlqfffffffffffffhf o rnno |
  1
/061+ {rn klqfffffffffffffhf lqjjmhnlihggoojoof:ronj rnno |
  0
POLYLINE
  5
26
100
AcDbEntity
  8
VZ1
  6
CONTINUOUS
100
AcDbPolygonMesh
 66
     1
 10
0.0
 20
0.0
 30
0.0
 70
    16
 71
     6
 72
     3
  0
VERTEX
  5
27
100
AcDbEntity
  8
VZ1
  6
CONTINUOUS
100
AcDbVertex
100
AcDbPolygonMeshVertex
 10
24.0
 20
-133.0
 30
133.0
 70
    64
  0
VERTEX
  5
28
100
AcDbEntity
  8
VZ1
  6
CONTINUOUS
100
AcDbVertex
100
AcDbPolygonMeshVertex
 10
24.0
 20
-133.0
 30
-133.0
 70
    64
  0
VERTEX
  5
29
100
AcDbEntity
  8
VZ1
  6
CONTINUOUS
100
AcDbVertex
100
AcDbPolygonMeshVertex
 10
24.0
 20
-133.0
 30
-133.0
 70
    64
  0
VERTEX
  5
2A
100
AcDbEntity
  8
VZ1
  6
CONTINUOUS
100
AcDbVertex
100
AcDbPolygonMeshVertex
 10
19.0
 20
-133.0
 30
133.0
 70
    64
  0
VERTEX
  5
2B
100
AcDbEntity
  8
VZ1
  6
CONTINUOUS
100
AcDbVertex
100
AcDbPolygonMeshVertex
 10
19.0
 20
-133.0
 30
-133.0
 70
    64
  0
VERTEX
  5
2C
100
AcDbEntity
  8
VZ1
  6
CONTINUOUS
100
AcDbVertex
100
AcDbPolygonMeshVertex
 10
19.0
 20
-133.0
 30
-133.0
 70
    64
  0
VERTEX
  5
2D
100
AcDbEntity
  8
VZ1
  6
CONTINUOUS
100
AcDbVertex
100
AcDbPolygonMeshVertex
 10
19.0
 20
133.0
 30
133.0
 70
    64
  0
VERTEX
  5
2E
100
AcDbEntity
  8
VZ1
  6
CONTINUOUS
100
AcDbVertex
100
AcDbPolygonMeshVertex
 10
19.0
 20
133.0
 30
-133.0
 70
    64
  0
VERTEX
  5
2F
100
AcDbEntity
  8
VZ1
  6
CONTINUOUS
100
AcDbVertex
100
AcDbPolygonMeshVertex
 10
19.0
 20
-133.0
 30
-133.0
 70
    64
  0
VERTEX
  5
30
100
AcDbEntity
  8
VZ1
  6
CONTINUOUS
100
AcDbVertex
100
AcDbPolygonMeshVertex
 10
24.0
 20
133.0
 30
133.0
 70
    64
  0
VERTEX
  5
31
100
AcDbEntity
  8
VZ1
  6
CONTINUOUS
100
AcDbVertex
100
AcDbPolygonMeshVertex
 10
24.0
 20
133.0
 30
-133.0
 70
    64
  0
VERTEX
  5
32
100
AcDbEntity
  8
VZ1
  6
CONTINUOUS
100
AcDbVertex
100
AcDbPolygonMeshVertex
 10
24.0
 20
-133.0
 30
-133.0
 70
    64
  0
VERTEX
  5
33
100
AcDbEntity
  8
VZ1
  6
CONTINUOUS
100
AcDbVertex
100
AcDbPolygonMeshVertex
 10
24.0
 20
133.0
 30
133.0
 70
    64
  0
VERTEX
  5
34
100
AcDbEntity
  8
VZ1
  6
CONTINUOUS
100
AcDbVertex
100
AcDbPolygonMeshVertex
 10
24.0
 20
133.0
 30
133.0
 70
    64
  0
VERTEX
  5
35
100
AcDbEntity
  8
VZ1
  6
CONTINUOUS
100
AcDbVertex
100
AcDbPolygonMeshVertex
 10
24.0
 20
-133.0
 30
133.0
 70
    64
  0
VERTEX
  5
36
100
AcDbEntity
  8
VZ1
  6
CONTINUOUS
100
AcDbVertex
100
AcDbPolygonMeshVertex
 10
19.0
 20
133.0
 30
133.0
 70
    64
  0
VERTEX
  5
37
100
AcDbEntity
  8
VZ1
  6
CONTINUOUS
100
AcDbVertex
100
AcDbPolygonMeshVertex
 10
19.0
 20
133.0
 30
133.0
 70
    64
  0
VERTEX
  5
38
100
AcDbEntity
  8
VZ1
  6
CONTINUOUS
100
AcDbVertex
100
AcDbPolygonMeshVertex
 10
19.0
 20
-133.0
 30
133.0
 70
    64
  0
SEQEND
  5
39
100
AcDbEntity
  8
VZ1
  6
CONTINUOUS
  0
3DSOLID
  5
3A
100
AcDbEntity
  8
VZ1
  6
CONTINUOUS
100
AcDbModelerGeometry
 70
     1
  1
noi kl n o          
  1
=0;& {n {m {rn {rn |
  1
9@=0;&r3(;r>++-6= {rn {l {rn {o |
  1
3*2/ {k {rn {j {o |
  1
-:9@)+r3(;r>++-6= {rn {rn {n {o {i {h |
  1
-:9@)+r3(;r>++-6= {rn {rn {rn {m {i {h |
  1
,7:33 {g {rn {rn {f {m |
  1
-:961:2:1+ {rn o o o o nqgnkkmmlifoolmfjf o o o m |
  1
):-+:'@+:2/3>+: {rn l o n g |
  1
-:9@)+r3(;r>++-6= {rn {rn {rn {j {i {h |
  1
9><: {no {nn {nm {j {rn {nl 90-(>-; ,6183: |
  1
99><:r3(;r>++-6= {rn {nk {rn {f |
  1
9><: {nj {ni {nh {j {rn {ng 90-(>-; ,6183: |
  1
300/ {rn {nf {mo {f |
  1
<01:r,*-9><: {rn fqj o rnqhkjoikojknfigghi:ronj n o rnqglifofjlohlljijf:roni rnqggmglmmifoonfoj:ronk rnqjhhhmngnokkmomli:rolo rnomqj n V V o n o V V V V |
  1
-:9@)+r3(;r>++-6= {rn {rn {no {f {i {rn |
  1
99><:r3(;r>++-6= {rn {mn {rn {nn |
  1
9><: {mm {rn {ml {j {rn {mk 90-(>-; ,6183: |
  1
300/ {rn {rn {mj {nn |
  1
/3>1:r,*-9><: {rn o o o rn o nqglifofjlohlljijf:roni nqglifofjlohlljijf:roni o n o V V V V |
  1
300/ {rn {rn {mi {f |
  1
<0:;8: {mh {mo {mo {mj {mg n {nm {rn |
  1
-:9@)+r3(;r>++-6= {rn {rn {nj {nn {i {rn |
  1
99><:r3(;r>++-6= {rn {mf {rn {ni |
  1
300/ {rn {rn {lo {ni |
  1
/3>1:r,*-9><: {rn nf o rlqkfonmgnoglflhhjm:ronj n o rnqglifofjlohlljijf:roni rnqglifofjlohlljijf:roni o rn o V V V V |
  1
<0:;8: {ln {mj {mj {mo {mg o {nh {rn |
  1
<0:;8: {lm {mi {mi {lo {ll n {nf {rn |
  1
<0/>-r3(;r>++-6= {rn {rn {rn {mo |
  1
:;8: {lk {lj {lj {mj {li o |
  1
-:9@)+r3(;r>++-6= {rn {rn {mm {ni {i {rn |
  1
<0:;8: {lh {lo {lo {mi {ll o {ml {rn |
  1
<0/>-r3(;r>++-6= {rn {rn {rn {mj |
  1
<0/>-r3(;r>++-6= {rn {rn {rn {mi |
  1
:;8: {lg {lf {lf {lo {ko o |
  1
:/>-r3(;r>++-6= {rn {rn {rn {mg |
  1
):-+:' {rn {mg {kn |
  1
:336/,:r<*-): {rn o o o rn o nqglifofjlohlljijf:roni rnqggmglmmifoonfoj:ronk rnqjhhhmngnokkmomli:rolo rnomqj n V V |
  1
<0/>-r3(;r>++-6= {rn {rn {rn {lo |
  1
:/>-r3(;r>++-6= {rn {rn {rn {ll |
  1
):-+:' {rn {ll {km |
  1
:336/,:r<*-): {rn nf o rlqkfonmgnoglflhhjm:ronj n o rnqglifofjlohlljijf:roni rnqggmglmmifoonfoj:ronk rnqjhhhmngnokkmomli:rolo rnomqj n V V |
  1
/061+ {rn rnqfjlffmjmllkomhjg:ronk o rnomqj |
  1
/061+ {rn ngqfffffffffffffhf o rnomqj |
  0
POLYLINE
  5
3B
100
AcDbEntity
  8
VZ1
  6
CONTINUOUS
100
AcDbPolygonMesh
 66
     1
 10
0.0
 20
0.0
 30
0.0
 70
    48
 71
     2
 72
    16
  0
VERTEX
  5
3C
100
AcDbEntity
  8
VZ1
  6
CONTINUOUS
100
AcDbVertex
100
AcDbPolygonMeshVertex
 10
44.0
 20
110.0
 30
0.0
 70
    64
  0
VERTEX
  5
3D
100
AcDbEntity
  8
VZ1
  6
CONTINUOUS
100
AcDbVertex
100
AcDbPolygonMeshVertex
 10
44.0
 20
101.626749
 30
42.095178
 70
    64
  0
VERTEX
  5
3E
100
AcDbEntity
  8
VZ1
  6
CONTINUOUS
100
AcDbVertex
100
AcDbPolygonMeshVertex
 10
44.0
 20
77.781746
 30
77.781746
 70
    64
  0
VERTEX
  5
3F
100
AcDbEntity
  8
VZ1
  6
CONTINUOUS
100
AcDbVertex
100
AcDbPolygonMeshVertex
 10
44.0
 20
42.095178
 30
101.626749
 70
    64
  0
VERTEX
  5
40
100
AcDbEntity
  8
VZ1
  6
CONTINUOUS
100
AcDbVertex
100
AcDbPolygonMeshVertex
 10
44.0
 20
0.0
 30
110.0
 70
    64
  0
VERTEX
  5
41
100
AcDbEntity
  8
VZ1
  6
CONTINUOUS
100
AcDbVertex
100
AcDbPolygonMeshVertex
 10
44.0
 20
-42.095178
 30
101.626749
 70
    64
  0
VERTEX
  5
42
100
AcDbEntity
  8
VZ1
  6
CONTINUOUS
100
AcDbVertex
100
AcDbPolygonMeshVertex
 10
44.0
 20
-77.781746
 30
77.781746
 70
    64
  0
VERTEX
  5
43
100
AcDbEntity
  8
VZ1
  6
CONTINUOUS
100
AcDbVertex
100
AcDbPolygonMeshVertex
 10
44.0
 20
-101.626749
 30
42.095178
 70
    64
  0
VERTEX
  5
44
100
AcDbEntity
  8
VZ1
  6
CONTINUOUS
100
AcDbVertex
100
AcDbPolygonMeshVertex
 10
44.0
 20
-110.0
 30
0.0
 70
    64
  0
VERTEX
  5
45
100
AcDbEntity
  8
VZ1
  6
CONTINUOUS
100
AcDbVertex
100
AcDbPolygonMeshVertex
 10
44.0
 20
-101.626749
 30
-42.095178
 70
    64
  0
VERTEX
  5
46
100
AcDbEntity
  8
VZ1
  6
CONTINUOUS
100
AcDbVertex
100
AcDbPolygonMeshVertex
 10
44.0
 20
-77.781746
 30
-77.781746
 70
    64
  0
VERTEX
  5
47
100
AcDbEntity
  8
VZ1
  6
CONTINUOUS
100
AcDbVertex
100
AcDbPolygonMeshVertex
 10
44.0
 20
-42.095178
 30
-101.626749
 70
    64
  0
VERTEX
  5
48
100
AcDbEntity
  8
VZ1
  6
CONTINUOUS
100
AcDbVertex
100
AcDbPolygonMeshVertex
 10
44.0
 20
0.0
 30
-110.0
 70
    64
  0
VERTEX
  5
49
100
AcDbEntity
  8
VZ1
  6
CONTINUOUS
100
AcDbVertex
100
AcDbPolygonMeshVertex
 10
44.0
 20
42.095178
 30
-101.626749
 70
    64
  0
VERTEX
  5
4A
100
AcDbEntity
  8
VZ1
  6
CONTINUOUS
100
AcDbVertex
100
AcDbPolygonMeshVertex
 10
44.0
 20
77.781746
 30
-77.781746
 70
    64
  0
VERTEX
  5
4B
100
AcDbEntity
  8
VZ1
  6
CONTINUOUS
100
AcDbVertex
100
AcDbPolygonMeshVertex
 10
44.0
 20
101.626749
 30
-42.095178
 70
    64
  0
VERTEX
  5
4C
100
AcDbEntity
  8
VZ1
  6
CONTINUOUS
100
AcDbVertex
100
AcDbPolygonMeshVertex
 10
69.0
 20
35.0
 30
0.0
 70
    64
  0
VERTEX
  5
4D
100
AcDbEntity
  8
VZ1
  6
CONTINUOUS
100
AcDbVertex
100
AcDbPolygonMeshVertex
 10
69.0
 20
32.335784
 30
13.39392
 70
    64
  0
VERTEX
  5
4E
100
AcDbEntity
  8
VZ1
  6
CONTINUOUS
100
AcDbVertex
100
AcDbPolygonMeshVertex
 10
69.0
 20
24.748737
 30
24.748737
 70
    64
  0
VERTEX
  5
4F
100
AcDbEntity
  8
VZ1
  6
CONTINUOUS
100
AcDbVertex
100
AcDbPolygonMeshVertex
 10
69.0
 20
13.39392
 30
32.335784
 70
    64
  0
VERTEX
  5
50
100
AcDbEntity
  8
VZ1
  6
CONTINUOUS
100
AcDbVertex
100
AcDbPolygonMeshVertex
 10
69.0
 20
0.0
 30
35.0
 70
    64
  0
VERTEX
  5
51
100
AcDbEntity
  8
VZ1
  6
CONTINUOUS
100
AcDbVertex
100
AcDbPolygonMeshVertex
 10
69.0
 20
-13.39392
 30
32.335784
 70
    64
  0
VERTEX
  5
52
100
AcDbEntity
  8
VZ1
  6
CONTINUOUS
100
AcDbVertex
100
AcDbPolygonMeshVertex
 10
69.0
 20
-24.748737
 30
24.748737
 70
    64
  0
VERTEX
  5
53
100
AcDbEntity
  8
VZ1
  6
CONTINUOUS
100
AcDbVertex
100
AcDbPolygonMeshVertex
 10
69.0
 20
-32.335784
 30
13.39392
 70
    64
  0
VERTEX
  5
54
100
AcDbEntity
  8
VZ1
  6
CONTINUOUS
100
AcDbVertex
100
AcDbPolygonMeshVertex
 10
69.0
 20
-35.0
 30
0.0
 70
    64
  0
VERTEX
  5
55
100
AcDbEntity
  8
VZ1
  6
CONTINUOUS
100
AcDbVertex
100
AcDbPolygonMeshVertex
 10
69.0
 20
-32.335784
 30
-13.39392
 70
    64
  0
VERTEX
  5
56
100
AcDbEntity
  8
VZ1
  6
CONTINUOUS
100
AcDbVertex
100
AcDbPolygonMeshVertex
 10
69.0
 20
-24.748737
 30
-24.748737
 70
    64
  0
VERTEX
  5
57
100
AcDbEntity
  8
VZ1
  6
CONTINUOUS
100
AcDbVertex
100
AcDbPolygonMeshVertex
 10
69.0
 20
-13.39392
 30
-32.335784
 70
    64
  0
VERTEX
  5
58
100
AcDbEntity
  8
VZ1
  6
CONTINUOUS
100
AcDbVertex
100
AcDbPolygonMeshVertex
 10
69.0
 20
0.0
 30
-35.0
 70
    64
  0
VERTEX
  5
59
100
AcDbEntity
  8
VZ1
  6
CONTINUOUS
100
AcDbVertex
100
AcDbPolygonMeshVertex
 10
69.0
 20
13.39392
 30
-32.335784
 70
    64
  0
VERTEX
  5
5A
100
AcDbEntity
  8
VZ1
  6
CONTINUOUS
100
AcDbVertex
100
AcDbPolygonMeshVertex
 10
69.0
 20
24.748737
 30
-24.748737
 70
    64
  0
VERTEX
  5
5B
100
AcDbEntity
  8
VZ1
  6
CONTINUOUS
100
AcDbVertex
100
AcDbPolygonMeshVertex
 10
69.0
 20
32.335784
 30
-13.39392
 70
    64
  0
SEQEND
  5
5C
100
AcDbEntity
  8
VZ1
  6
CONTINUOUS
  0
POINT
  5
5D
100
AcDbEntity
  8
VZ1
  6
CONTINUOUS
100
AcDbPoint
 10
109.5
 20
0.0
 30
0.0
210
1.0
220
0.0
230
-0.0000000000000002
 50
90.0
  0
POINT
  5
5E
100
AcDbEntity
  8
VZ1
  6
CONTINUOUS
100
AcDbPoint
 10
44.0
 20
0.0
 30
0.0
210
1.0
220
0.0
230
-0.0000000000000002
 50
90.0
  0
POINT
  5
5F
100
AcDbEntity
  8
VZ1
  6
CONTINUOUS
100
AcDbPoint
 10
24.0
 20
0.0
 30
0.0
210
1.0
220
0.0
230
-0.0000000000000002
 50
90.0
  0
POINT
  5
60
100
AcDbEntity
  8
VZ1
  6
CONTINUOUS
100
AcDbPoint
 10
19.0
 20
0.0
 30
0.0
210
1.0
220
0.0
230
-0.0000000000000002
 50
90.0
  0
POINT
  5
61
100
AcDbEntity
  8
VZ1
  6
CONTINUOUS
100
AcDbPoint
 10
69.0
 20
0.0
 30
0.0
210
1.0
220
0.0
230
-0.0000000000000002
 50
90.0
  0
POINT
  5
62
100
AcDbEntity
  8
VZ1
  6
CONTINUOUS
100
AcDbPoint
 10
24.0
 20
0.0
 30
0.0
210
1.0
220
0.0
230
-0.0000000000000002
 50
90.0
  0
3DSOLID
  5
63
100
AcDbEntity
  8
VZ1
  6
CONTINUOUS
100
AcDbModelerGeometry
 70
     1
  1
noi kl n o          
  1
=0;& {n {m {rn {rn |
  1
9@=0;&r3(;r>++-6= {rn {l {rn {o |
  1
3*2/ {k {rn {j {o |
  1
-:9@)+r3(;r>++-6= {rn {rn {n {o {i {h |
  1
-:9@)+r3(;r>++-6= {rn {rn {rn {m {i {h |
  1
,7:33 {g {rn {rn {f {m |
  1
-:961:2:1+ {rn o o o o nqgnkkmmlifoolmfjf o o o m |
  1
):-+:'@+:2/3>+: {rn l o n g |
  1
-:9@)+r3(;r>++-6= {rn {rn {rn {j {i {h |
  1
9><: {no {nn {nm {j {rn {nl 90-(>-; ,6183: |
  1
99><:r3(;r>++-6= {rn {nk {rn {f |
  1
9><: {nj {ni {nh {j {rn {ng 90-(>-; ,6183: |
  1
300/ {rn {nf {mo {f |
  1
<01:r,*-9><: {rn gfqmj o rkqilgnfijijnommjlf:ronj n o rnqglifofjlohlljijf:roni riqkmfnglljhjihkgoi:ronj o rlj n V V o n o V V V V |
  1
-:9@)+r3(;r>++-6= {rn {rn {no {f {i {rn |
  1
99><:r3(;r>++-6= {rn {mn {rn {nn |
  1
9><: {mm {rn {ml {j {rn {mk 90-(>-; ,6183: |
  1
300/ {rn {rn {mj {nn |
  1
/3>1:r,*-9><: {rn if o rfqngkjkhijliihgmfk:roni rn o nqglifofjlohlljijf:roni nqglifofjlohlljijf:roni o n o V V V V |
  1
300/ {rn {rn {mi {f |
  1
<0:;8: {mh {mo {mo {mj {mg n {nm {rn |
  1
-:9@)+r3(;r>++-6= {rn {rn {nj {nn {i {rn |
  1
99><:r3(;r>++-6= {rn {mf {rn {ni |
  1
300/ {rn {rn {lo {ni |
  1
/3>1:r,*-9><: {rn nofqj o rgqljhflglikglhhmkg:ronj n o rnqglifofjlohlljijf:roni rnqglifofjlohlljijf:roni o rn o V V V V |
  1
<0:;8: {ln {mj {mj {mo {mg o {nh {rn |
  1
<0:;8: {lm {mi {mi {lo {ll n {nf {rn |
  1
<0/>-r3(;r>++-6= {rn {rn {rn {mo |
  1
:;8: {lk {lj {lj {mj {li o |
  1
-:9@)+r3(;r>++-6= {rn {rn {mm {ni {i {rn |
  1
<0:;8: {lh {lo {lo {mi {ll o {ml {rn |
  1
<0/>-r3(;r>++-6= {rn {rn {rn {mj |
  1
<0/>-r3(;r>++-6= {rn {rn {rn {mi |
  1
:;8: {lg {lf {lf {lo {ko o |
  1
:/>-r3(;r>++-6= {rn {rn {rn {mg |
  1
):-+:' {rn {mg {kn |
  1
:336/,:r<*-): {rn if o rfqngkjkhijliihgmfk:roni rn o nqglifofjlohlljijf:roni riqkmfnglljhjihkgoi:ronj o rlj n V V |
  1
<0/>-r3(;r>++-6= {rn {rn {rn {lo |
  1
:/>-r3(;r>++-6= {rn {rn {rn {ll |
  1
):-+:' {rn {ll {km |
  1
:336/,:r<*-): {rn nofqj o rgqljhflglikglhhmkg:ronj n o rnqglifofjlohlljijf:roni riqkmfnglljhjihkgoi:ronj o rlj n V V |
  1
/061+ {rn if o rlj |
  1
/061+ {rn nofqj o rljqooooooooooooonk |
  0
POINT
  5
64
100
AcDbEntity
  8
VZ1
  6
CONTINUOUS
100
AcDbPoint
 10
0.0
 20
0.0
 30
0.0
210
1.0
220
0.0
230
-0.0000000000000002
 50
90.0
  0
LINE
  5
65
100
AcDbEntity
  8
VZ1
  6
CONTINUOUS
100
AcDbLine
 10
0.0
 20
0.0
 30
0.0
 11
19.0
 21
0.0
 31
0.0
  0
LINE
  5
66
100
AcDbEntity
  8
VZ1
  6
CONTINUOUS
100
AcDbLine
 10
69.0
 20
0.0
 30
0.0
 11
109.5
 21
0.0
 31
0.0
210
1.0
220
0.0
230
-0.0000000000000002
  0
LINE
  5
67
100
AcDbEntity
  8
VZ1
  6
CONTINUOUS
100
AcDbLine
 10
24.0
 20
0.0
 30
0.0
 11
69.0
 21
0.0
 31
0.0
  0
LINE
  5
68
100
AcDbEntity
  8
VZ1
  6
CONTINUOUS
100
AcDbLine
 10
64.0
 20
0.0
 30
0.0
 11
64.0
 21
0.0
 31
0.0
  0
ENDBLK
  5
6A
100
AcDbEntity
  8
0
100
AcDbBlockEnd
  0
BLOCK
  5
D2
100
AcDbEntity
  8
0
100
AcDbBlockBegin
  2
A
 70
     0
 10
0.0
 20
0.0
 30
0.0
  3
A
  1

  0
POLYLINE
  5
D3
100
AcDbEntity
  8
VZ1
  6
CONTINUOUS
100
AcDbPolygonMesh
 66
     1
 10
0.0
 20
0.0
 30
0.0
 70
    48
 71
     2
 72
    16
  0
VERTEX
  5
D4
100
AcDbEntity
  8
VZ1
  6
CONTINUOUS
100
AcDbVertex
100
AcDbPolygonMeshVertex
 10
44.0
 20
110.0
 30
0.0
 70
    64
  0
VERTEX
  5
D5
100
AcDbEntity
  8
VZ1
  6
CONTINUOUS
100
AcDbVertex
100
AcDbPolygonMeshVertex
 10
44.0
 20
101.626749
 30
42.095178
 70
    64
  0
VERTEX
  5
D6
100
AcDbEntity
  8
VZ1
  6
CONTINUOUS
100
AcDbVertex
100
AcDbPolygonMeshVertex
 10
44.0
 20
77.781746
 30
77.781746
 70
    64
  0
VERTEX
  5
D7
100
AcDbEntity
  8
VZ1
  6
CONTINUOUS
100
AcDbVertex
100
AcDbPolygonMeshVertex
 10
44.0
 20
42.095178
 30
101.626749
 70
    64
  0
VERTEX
  5
D8
100
AcDbEntity
  8
VZ1
  6
CONTINUOUS
100
AcDbVertex
100
AcDbPolygonMeshVertex
 10
44.0
 20
0.0
 30
110.0
 70
    64
  0
VERTEX
  5
D9
100
AcDbEntity
  8
VZ1
  6
CONTINUOUS
100
AcDbVertex
100
AcDbPolygonMeshVertex
 10
44.0
 20
-42.095178
 30
101.626749
 70
    64
  0
VERTEX
  5
DA
100
AcDbEntity
  8
VZ1
  6
CONTINUOUS
100
AcDbVertex
100
AcDbPolygonMeshVertex
 10
44.0
 20
-77.781746
 30
77.781746
 70
    64
  0
VERTEX
  5
DB
100
AcDbEntity
  8
VZ1
  6
CONTINUOUS
100
AcDbVertex
100
AcDbPolygonMeshVertex
 10
44.0
 20
-101.626749
 30
42.095178
 70
    64
  0
VERTEX
  5
DC
100
AcDbEntity
  8
VZ1
  6
CONTINUOUS
100
AcDbVertex
100
AcDbPolygonMeshVertex
 10
44.0
 20
-110.0
 30
0.0
 70
    64
  0
VERTEX
  5
DD
100
AcDbEntity
  8
VZ1
  6
CONTINUOUS
100
AcDbVertex
100
AcDbPolygonMeshVertex
 10
44.0
 20
-101.626749
 30
-42.095178
 70
    64
  0
VERTEX
  5
DE
100
AcDbEntity
  8
VZ1
  6
CONTINUOUS
100
AcDbVertex
100
AcDbPolygonMeshVertex
 10
44.0
 20
-77.781746
 30
-77.781746
 70
    64
  0
VERTEX
  5
DF
100
AcDbEntity
  8
VZ1
  6
CONTINUOUS
100
AcDbVertex
100
AcDbPolygonMeshVertex
 10
44.0
 20
-42.095178
 30
-101.626749
 70
    64
  0
VERTEX
  5
E0
100
AcDbEntity
  8
VZ1
  6
CONTINUOUS
100
AcDbVertex
100
AcDbPolygonMeshVertex
 10
44.0
 20
0.0
 30
-110.0
 70
    64
  0
VERTEX
  5
E1
100
AcDbEntity
  8
VZ1
  6
CONTINUOUS
100
AcDbVertex
100
AcDbPolygonMeshVertex
 10
44.0
 20
42.095178
 30
-101.626749
 70
    64
  0
VERTEX
  5
E2
100
AcDbEntity
  8
VZ1
  6
CONTINUOUS
100
AcDbVertex
100
AcDbPolygonMeshVertex
 10
44.0
 20
77.781746
 30
-77.781746
 70
    64
  0
VERTEX
  5
E3
100
AcDbEntity
  8
VZ1
  6
CONTINUOUS
100
AcDbVertex
100
AcDbPolygonMeshVertex
 10
44.0
 20
101.626749
 30
-42.095178
 70
    64
  0
VERTEX
  5
E4
100
AcDbEntity
  8
VZ1
  6
CONTINUOUS
100
AcDbVertex
100
AcDbPolygonMeshVertex
 10
69.0
 20
35.0
 30
0.0
 70
    64
  0
VERTEX
  5
E5
100
AcDbEntity
  8
VZ1
  6
CONTINUOUS
100
AcDbVertex
100
AcDbPolygonMeshVertex
 10
69.0
 20
32.335784
 30
13.39392
 70
    64
  0
VERTEX
  5
E6
100
AcDbEntity
  8
VZ1
  6
CONTINUOUS
100
AcDbVertex
100
AcDbPolygonMeshVertex
 10
69.0
 20
24.748737
 30
24.748737
 70
    64
  0
VERTEX
  5
E7
100
AcDbEntity
  8
VZ1
  6
CONTINUOUS
100
AcDbVertex
100
AcDbPolygonMeshVertex
 10
69.0
 20
13.39392
 30
32.335784
 70
    64
  0
VERTEX
  5
E8
100
AcDbEntity
  8
VZ1
  6
CONTINUOUS
100
AcDbVertex
100
AcDbPolygonMeshVertex
 10
69.0
 20
0.0
 30
35.0
 70
    64
  0
VERTEX
  5
E9
100
AcDbEntity
  8
VZ1
  6
CONTINUOUS
100
AcDbVertex
100
AcDbPolygonMeshVertex
 10
69.0
 20
-13.39392
 30
32.335784
 70
    64
  0
VERTEX
  5
EA
100
AcDbEntity
  8
VZ1
  6
CONTINUOUS
100
AcDbVertex
100
AcDbPolygonMeshVertex
 10
69.0
 20
-24.748737
 30
24.748737
 70
    64
  0
VERTEX
  5
EB
100
AcDbEntity
  8
VZ1
  6
CONTINUOUS
100
AcDbVertex
100
AcDbPolygonMeshVertex
 10
69.0
 20
-32.335784
 30
13.39392
 70
    64
  0
VERTEX
  5
EC
100
AcDbEntity
  8
VZ1
  6
CONTINUOUS
100
AcDbVertex
100
AcDbPolygonMeshVertex
 10
69.0
 20
-35.0
 30
0.0
 70
    64
  0
VERTEX
  5
ED
100
AcDbEntity
  8
VZ1
  6
CONTINUOUS
100
AcDbVertex
100
AcDbPolygonMeshVertex
 10
69.0
 20
-32.335784
 30
-13.39392
 70
    64
  0
VERTEX
  5
EE
100
AcDbEntity
  8
VZ1
  6
CONTINUOUS
100
AcDbVertex
100
AcDbPolygonMeshVertex
 10
69.0
 20
-24.748737
 30
-24.748737
 70
    64
  0
VERTEX
  5
EF
100
AcDbEntity
  8
VZ1
  6
CONTINUOUS
100
AcDbVertex
100
AcDbPolygonMeshVertex
 10
69.0
 20
-13.39392
 30
-32.335784
 70
    64
  0
VERTEX
  5
F0
100
AcDbEntity
  8
VZ1
  6
CONTINUOUS
100
AcDbVertex
100
AcDbPolygonMeshVertex
 10
69.0
 20
0.0
 30
-35.0
 70
    64
  0
VERTEX
  5
F1
100
AcDbEntity
  8
VZ1
  6
CONTINUOUS
100
AcDbVertex
100
AcDbPolygonMeshVertex
 10
69.0
 20
13.39392
 30
-32.335784
 70
    64
  0
VERTEX
  5
F2
100
AcDbEntity
  8
VZ1
  6
CONTINUOUS
100
AcDbVertex
100
AcDbPolygonMeshVertex
 10
69.0
 20
24.748737
 30
-24.748737
 70
    64
  0
VERTEX
  5
F3
100
AcDbEntity
  8
VZ1
  6
CONTINUOUS
100
AcDbVertex
100
AcDbPolygonMeshVertex
 10
69.0
 20
32.335784
 30
-13.39392
 70
    64
  0
SEQEND
  5
F4
100
AcDbEntity
  8
VZ1
  6
CONTINUOUS
  0
3DSOLID
  5
F5
100
AcDbEntity
  8
VZ1
  6
CONTINUOUS
100
AcDbModelerGeometry
 70
     1
  1
noi kl n o          
  1
=0;& {n {m {rn {rn |
  1
9@=0;&r3(;r>++-6= {rn {l {rn {o |
  1
3*2/ {k {rn {j {o |
  1
-:9@)+r3(;r>++-6= {rn {rn {n {o {i {h |
  1
-:9@)+r3(;r>++-6= {rn {rn {rn {m {i {h |
  1
,7:33 {g {rn {rn {f {m |
  1
-:961:2:1+ {rn o o o o nqgnkkmmlifoolmfjf o o o m |
  1
):-+:'@+:2/3>+: {rn l o n g |
  1
-:9@)+r3(;r>++-6= {rn {rn {rn {j {i {h |
  1
9><: {no {nn {nm {j {rn {nl 90-(>-; ,6183: |
  1
99><:r3(;r>++-6= {rn {nk {rn {f |
  1
9><: {nj {ni {nh {j {rn {ng 90-(>-; ,6183: |
  1
300/ {rn {nf {mo {f |
  1
<01:r,*-9><: {rn fqj o rnqhkjoikojknfigghi:ronj n o rnqglifofjlohlljijf:roni rnqggmglmmifoonfoj:ronk rnqjhhhmngnokkmomli:rolo rnomqj n V V o n o V V V V |
  1
-:9@)+r3(;r>++-6= {rn {rn {no {f {i {rn |
  1
99><:r3(;r>++-6= {rn {mn {rn {nn |
  1
9><: {mm {rn {ml {j {rn {mk 90-(>-; ,6183: |
  1
300/ {rn {rn {mj {nn |
  1
/3>1:r,*-9><: {rn o o o rn o nqglifofjlohlljijf:roni nqglifofjlohlljijf:roni o n o V V V V |
  1
300/ {rn {rn {mi {f |
  1
<0:;8: {mh {mo {mo {mj {mg n {nm {rn |
  1
-:9@)+r3(;r>++-6= {rn {rn {nj {nn {i {rn |
  1
99><:r3(;r>++-6= {rn {mf {rn {ni |
  1
300/ {rn {rn {lo {ni |
  1
/3>1:r,*-9><: {rn nf o rlqkfonmgnoglflhhjm:ronj n o rnqglifofjlohlljijf:roni rnqglifofjlohlljijf:roni o rn o V V V V |
  1
<0:;8: {ln {mj {mj {mo {mg o {nh {rn |
  1
<0:;8: {lm {mi {mi {lo {ll n {nf {rn |
  1
<0/>-r3(;r>++-6= {rn {rn {rn {mo |
  1
:;8: {lk {lj {lj {mj {li o |
  1
-:9@)+r3(;r>++-6= {rn {rn {mm {ni {i {rn |
  1
<0:;8: {lh {lo {lo {mi {ll o {ml {rn |
  1
<0/>-r3(;r>++-6= {rn {rn {rn {mj |
  1
<0/>-r3(;r>++-6= {rn {rn {rn {mi |
  1
:;8: {lg {lf {lf {lo {ko o |
  1
:/>-r3(;r>++-6= {rn {rn {rn {mg |
  1
):-+:' {rn {mg {kn |
  1
:336/,:r<*-): {rn o o o rn o nqglifofjlohlljijf:roni rnqggmglmmifoonfoj:ronk rnqjhhhmngnokkmomli:rolo rnomqj n V V |
  1
<0/>-r3(;r>++-6= {rn {rn {rn {lo |
  1
:/>-r3(;r>++-6= {rn {rn {rn {ll |
  1
):-+:' {rn {ll {km |
  1
:336/,:r<*-): {rn nf o rlqkfonmgnoglflhhjm:ronj n o rnqglifofjlohlljijf:roni rnqggmglmmifoonfoj:ronk rnqjhhhmngnokkmomli:rolo rnomqj n V V |
  1
/061+ {rn rnqfjlffmjmllkomhjg:ronk o rnomqj |
  1
/061+ {rn ngqfffffffffffffhf o rnomqj |
  0
POLYLINE
  5
F6
100
AcDbEntity
  8
VZ1
  6
CONTINUOUS
100
AcDbPolygonMesh
 66
     1
 10
0.0
 20
0.0
 30
0.0
 70
    16
 71
     6
 72
     3
  0
VERTEX
  5
F7
100
AcDbEntity
  8
VZ1
  6
CONTINUOUS
100
AcDbVertex
100
AcDbPolygonMeshVertex
 10
24.0
 20
-133.0
 30
133.0
 70
    64
  0
VERTEX
  5
F8
100
AcDbEntity
  8
VZ1
  6
CONTINUOUS
100
AcDbVertex
100
AcDbPolygonMeshVertex
 10
24.0
 20
-133.0
 30
-133.0
 70
    64
  0
VERTEX
  5
F9
100
AcDbEntity
  8
VZ1
  6
CONTINUOUS
100
AcDbVertex
100
AcDbPolygonMeshVertex
 10
24.0
 20
-133.0
 30
-133.0
 70
    64
  0
VERTEX
  5
FA
100
AcDbEntity
  8
VZ1
  6
CONTINUOUS
100
AcDbVertex
100
AcDbPolygonMeshVertex
 10
19.0
 20
-133.0
 30
133.0
 70
    64
  0
VERTEX
  5
FB
100
AcDbEntity
  8
VZ1
  6
CONTINUOUS
100
AcDbVertex
100
AcDbPolygonMeshVertex
 10
19.0
 20
-133.0
 30
-133.0
 70
    64
  0
VERTEX
  5
FC
100
AcDbEntity
  8
VZ1
  6
CONTINUOUS
100
AcDbVertex
100
AcDbPolygonMeshVertex
 10
19.0
 20
-133.0
 30
-133.0
 70
    64
  0
VERTEX
  5
FD
100
AcDbEntity
  8
VZ1
  6
CONTINUOUS
100
AcDbVertex
100
AcDbPolygonMeshVertex
 10
19.0
 20
133.0
 30
133.0
 70
    64
  0
VERTEX
  5
FE
100
AcDbEntity
  8
VZ1
  6
CONTINUOUS
100
AcDbVertex
100
AcDbPolygonMeshVertex
 10
19.0
 20
133.0
 30
-133.0
 70
    64
  0
VERTEX
  5
FF
100
AcDbEntity
  8
VZ1
  6
CONTINUOUS
100
AcDbVertex
100
AcDbPolygonMeshVertex
 10
19.0
 20
-133.0
 30
-133.0
 70
    64
  0
VERTEX
  5
100
100
AcDbEntity
  8
VZ1
  6
CONTINUOUS
100
AcDbVertex
100
AcDbPolygonMeshVertex
 10
24.0
 20
133.0
 30
133.0
 70
    64
  0
VERTEX
  5
101
100
AcDbEntity
  8
VZ1
  6
CONTINUOUS
100
AcDbVertex
100
AcDbPolygonMeshVertex
 10
24.0
 20
133.0
 30
-133.0
 70
    64
  0
VERTEX
  5
102
100
AcDbEntity
  8
VZ1
  6
CONTINUOUS
100
AcDbVertex
100
AcDbPolygonMeshVertex
 10
24.0
 20
-133.0
 30
-133.0
 70
    64
  0
VERTEX
  5
103
100
AcDbEntity
  8
VZ1
  6
CONTINUOUS
100
AcDbVertex
100
AcDbPolygonMeshVertex
 10
24.0
 20
133.0
 30
133.0
 70
    64
  0
VERTEX
  5
104
100
AcDbEntity
  8
VZ1
  6
CONTINUOUS
100
AcDbVertex
100
AcDbPolygonMeshVertex
 10
24.0
 20
133.0
 30
133.0
 70
    64
  0
VERTEX
  5
105
100
AcDbEntity
  8
VZ1
  6
CONTINUOUS
100
AcDbVertex
100
AcDbPolygonMeshVertex
 10
24.0
 20
-133.0
 30
133.0
 70
    64
  0
VERTEX
  5
106
100
AcDbEntity
  8
VZ1
  6
CONTINUOUS
100
AcDbVertex
100
AcDbPolygonMeshVertex
 10
19.0
 20
133.0
 30
133.0
 70
    64
  0
VERTEX
  5
107
100
AcDbEntity
  8
VZ1
  6
CONTINUOUS
100
AcDbVertex
100
AcDbPolygonMeshVertex
 10
19.0
 20
133.0
 30
133.0
 70
    64
  0
VERTEX
  5
108
100
AcDbEntity
  8
VZ1
  6
CONTINUOUS
100
AcDbVertex
100
AcDbPolygonMeshVertex
 10
19.0
 20
-133.0
 30
133.0
 70
    64
  0
SEQEND
  5
109
100
AcDbEntity
  8
VZ1
  6
CONTINUOUS
  0
3DSOLID
  5
10A
100
AcDbEntity
  8
VZ1
  6
CONTINUOUS
100
AcDbModelerGeometry
 70
     1
  1
noi kl n o          
  1
=0;& {n {m {rn {rn |
  1
9@=0;&r3(;r>++-6= {rn {l {rn {o |
  1
3*2/ {k {rn {j {o |
  1
-:9@)+r3(;r>++-6= {rn {rn {n {o {i {h |
  1
-:9@)+r3(;r>++-6= {rn {rn {rn {m {i {h |
  1
,7:33 {g {rn {rn {f {m |
  1
-:961:2:1+ {rn o o o o nqgnkkmmlifoolmfjf o o o m |
  1
):-+:'@+:2/3>+: {rn l o n g |
  1
-:9@)+r3(;r>++-6= {rn {rn {rn {j {i {h |
  1
9><: {no {nn {nm {j {rn {nl 90-(>-; ,6183: |
  1
99><:r3(;r>++-6= {rn {nk {rn {f |
  1
9><: {nj {ni {nh {j {rn {ng 90-(>-; ,6183: |
  1
300/ {rn {nf {mo {f |
  1
<01:r,*-9><: {rn lk o rmqhjjlikmfinoolkgg:ronj n o rnqglifofjlohlljijf:roni rmqomoiookglgoifmmj:ronk nqjhhhmngnokkmomli:rolo rnno n V V o n o V V V V |
  1
-:9@)+r3(;r>++-6= {rn {rn {no {f {i {rn |
  1
99><:r3(;r>++-6= {rn {mn {rn {nn |
  1
9><: {mm {rn {ml {j {rn {mk 90-(>-; ,6183: |
  1
300/ {rn {rn {mj {nn |
  1
/3>1:r,*-9><: {rn mk o rfqngkjkhijliihgmfk:roni rn o nqglifofjlohlljijf:roni nqglifofjlohlljijf:roni o n o V V V V |
  1
300/ {rn {rn {mi {f |
  1
<0:;8: {mh {mo {mo {mj {mg n {nm {rn |
  1
-:9@)+r3(;r>++-6= {rn {rn {nj {nn {i {rn |
  1
99><:r3(;r>++-6= {rn {mf {rn {ni |
  1
300/ {rn {rn {lo {ni |
  1
/3>1:r,*-9><: {rn kkqooooooooooooooh o rkqjfmmhlgmigllfnkh:ronj n o rnqglifofjlohlljijf:roni rnqglifofjlohlljijf:roni o rn o V V V V |
  1
<0:;8: {ln {mj {mj {mo {mg o {nh {rn |
  1
<0:;8: {lm {mi {mi {lo {ll n {nf {rn |
  1
<0/>-r3(;r>++-6= {rn {rn {rn {mo |
  1
:;8: {lk {lj {lj {mj {li o |
  1
-:9@)+r3(;r>++-6= {rn {rn {mm {ni {i {rn |
  1
<0:;8: {lh {lo {lo {mi {ll o {ml {rn |
  1
<0/>-r3(;r>++-6= {rn {rn {rn {mj |
  1
<0/>-r3(;r>++-6= {rn {rn {rn {mi |
  1
:;8: {lg {lf {lf {lo {ko o |
  1
:/>-r3(;r>++-6= {rn {rn {rn {mg |
  1
):-+:' {rn {mg {kn |
  1
:336/,:r<*-): {rn mk o rfqngkjkhijliihgmfk:roni rn o nqglifofjlohlljijf:roni rmqomoiookglgoifmmj:ronk nqjhhhmngnokkmomli:rolo rnno n V V |
  1
<0/>-r3(;r>++-6= {rn {rn {rn {lo |
  1
:/>-r3(;r>++-6= {rn {rn {rn {ll |
  1
):-+:' {rn {ll {km |
  1
:336/,:r<*-): {rn kkqooooooooooooooh o rkqjfmmhlgmigllfnkh:ronj n o rnqglifofjlohlljijf:roni rmqomoiookglgoifmmj:ronk nqjhhhmngnokkmomli:rolo rnno n V V |
  1
/061+ {rn mlqfffffffffffffhf o rnno |
  1
/061+ {rn klqfffffffffffffhf lqjjmhnlihggoojoof:ronj rnno |
  0
INSERT
  5
10B
100
AcDbEntity
  8
VZ1
  6
CONTINUOUS
100
AcDbBlockReference
  2
VRTULE
 10
0.0
 20
0.0
 30
0.0
  0
POINT
  5
10C
100
AcDbEntity
  8
VZ1
  6
CONTINUOUS
100
AcDbPoint
 10
0.0
 20
0.0
 30
0.0
210
1.0
220
0.0
230
-0.0000000000000002
 50
90.0
  0
3DSOLID
  5
10D
100
AcDbEntity
  8
VZ1
  6
CONTINUOUS
100
AcDbModelerGeometry
 70
     1
  1
noi kl n o          
  1
=0;& {n {m {rn {rn |
  1
9@=0;&r3(;r>++-6= {rn {l {rn {o |
  1
3*2/ {k {rn {j {o |
  1
-:9@)+r3(;r>++-6= {rn {rn {n {o {i {h |
  1
-:9@)+r3(;r>++-6= {rn {rn {rn {m {i {h |
  1
,7:33 {g {rn {rn {f {m |
  1
-:961:2:1+ {rn o o o o nqgnkkmmlifoolmfjf o o o m |
  1
):-+:'@+:2/3>+: {rn l o n g |
  1
-:9@)+r3(;r>++-6= {rn {rn {rn {j {i {h |
  1
9><: {no {nn {nm {j {rn {nl 90-(>-; ,6183: |
  1
99><:r3(;r>++-6= {rn {nk {rn {f |
  1
9><: {nj {ni {nh {j {rn {ng 90-(>-; ,6183: |
  1
300/ {rn {nf {mo {f |
  1
<01:r,*-9><: {rn gfqmj o rkqilgnfijijnommjlf:ronj n o rnqglifofjlohlljijf:roni riqkmfnglljhjihkgoi:ronj o rlj n V V o n o V V V V |
  1
-:9@)+r3(;r>++-6= {rn {rn {no {f {i {rn |
  1
99><:r3(;r>++-6= {rn {mn {rn {nn |
  1
9><: {mm {rn {ml {j {rn {mk 90-(>-; ,6183: |
  1
300/ {rn {rn {mj {nn |
  1
/3>1:r,*-9><: {rn if o rfqngkjkhijliihgmfk:roni rn o nqglifofjlohlljijf:roni nqglifofjlohlljijf:roni o n o V V V V |
  1
300/ {rn {rn {mi {f |
  1
<0:;8: {mh {mo {mo {mj {mg n {nm {rn |
  1
-:9@)+r3(;r>++-6= {rn {rn {nj {nn {i {rn |
  1
99><:r3(;r>++-6= {rn {mf {rn {ni |
  1
300/ {rn {rn {lo {ni |
  1
/3>1:r,*-9><: {rn nofqj o rgqljhflglikglhhmkg:ronj n o rnqglifofjlohlljijf:roni rnqglifofjlohlljijf:roni o rn o V V V V |
  1
<0:;8: {ln {mj {mj {mo {mg o {nh {rn |
  1
<0:;8: {lm {mi {mi {lo {ll n {nf {rn |
  1
<0/>-r3(;r>++-6= {rn {rn {rn {mo |
  1
:;8: {lk {lj {lj {mj {li o |
  1
-:9@)+r3(;r>++-6= {rn {rn {mm {ni {i {rn |
  1
<0:;8: {lh {lo {lo {mi {ll o {ml {rn |
  1
<0/>-r3(;r>++-6= {rn {rn {rn {mj |
  1
<0/>-r3(;r>++-6= {rn {rn {rn {mi |
  1
:;8: {lg {lf {lf {lo {ko o |
  1
:/>-r3(;r>++-6= {rn {rn {rn {mg |
  1
):-+:' {rn {mg {kn |
  1
:336/,:r<*-): {rn if o rfqngkjkhijliihgmfk:roni rn o nqglifofjlohlljijf:roni riqkmfnglljhjihkgoi:ronj o rlj n V V |
  1
<0/>-r3(;r>++-6= {rn {rn {rn {lo |
  1
:/>-r3(;r>++-6= {rn {rn {rn {ll |
  1
):-+:' {rn {ll {km |
  1
:336/,:r<*-): {rn nofqj o rgqljhflglikglhhmkg:ronj n o rnqglifofjlohlljijf:roni riqkmfnglljhjihkgoi:ronj o rlj n V V |
  1
/061+ {rn if o rlj |
  1
/061+ {rn nofqj o rljqooooooooooooonk |
  0
POINT
  5
10E
100
AcDbEntity
  8
VZ1
  6
CONTINUOUS
100
AcDbPoint
 10
109.5
 20
0.0
 30
0.0
210
1.0
220
0.0
230
-0.0000000000000002
 50
90.0
  0
ENDBLK
  5
10F
100
AcDbEntity
  8
0
100
AcDbBlockEnd
  0
ENDSEC
  0
SECTION
  2
ENTITIES
  0
INSERT
  5
111
100
AcDbEntity
  8
VZ1
  6
CONTINUOUS
100
AcDbBlockReference
  2
A
 10
0.0
 20
0.0
 30
0.0
 41
1.75
 42
1.75
 43
1.75
  0
ENDSEC
  0
SECTION
  2
OBJECTS
  0
DICTIONARY
  5
1A
100
AcDbDictionary
  3
ACAD_GROUP
350
18
  3
ACAD_MLINESTYLE
350
19
  0
DICTIONARY
  5
18
102
{ACAD_REACTORS
330
1A
102
}
100
AcDbDictionary
  0
DICTIONARY
  5
19
102
{ACAD_REACTORS
330
1A
102
}
100
AcDbDictionary
  3
STANDARD
350
1D
  0
MLINESTYLE
  5
1D
102
{ACAD_REACTORS
330
19
102
}
100
AcDbMlineStyle
  2
STANDARD
 70
     0
  3

 62
   256
 51
90.0
 52
90.0
 71
     2
 49
0.5
 62
   256
  6
BYLAYER
 49
-0.5
 62
   256
  6
BYLAYER
  0
ENDSEC
  0
EOF
