  0
SECTION
  2
HEADER
  9
$ACADVER
  1
AC1015
  9
$ACADMAINTVER
 70
    13
  9
$DWGCODEPAGE
  3
ANSI_1250
  9
$INSBASE
 10
0.0
 20
0.0
 30
0.0
  9
$EXTMIN
 10
-4477.24644536218
 20
956.0055451866965
 30
462.1518724550274
  9
$EXTMAX
 10
123.250537077627
 20
3644.894031162037
 30
3238.004470599763
  9
$LIMMIN
 10
0.0
 20
0.0
  9
$LIMMAX
 10
420.0
 20
297.0
  9
$ORTHOMODE
 70
     1
  9
$REGENMODE
 70
     1
  9
$FILLMODE
 70
     1
  9
$QTEXTMODE
 70
     0
  9
$MIRRTEXT
 70
     1
  9
$LTSCALE
 40
1.0
  9
$ATTMODE
 70
     1
  9
$TEXTSIZE
 40
1.0
  9
$TRACEWID
 40
1.0
  9
$TEXTSTYLE
  7
Standard
  9
$CLAYER
  8
0
  9
$CELTYPE
  6
ByLayer
  9
$CECOLOR
 62
   256
  9
$CELTSCALE
 40
1.0
  9
$DISPSILH
 70
     0
  9
$DIMSCALE
 40
50.0
  9
$DIMASZ
 40
2.5
  9
$DIMEXO
 40
0.625
  9
$DIMDLI
 40
3.75
  9
$DIMRND
 40
0.0
  9
$DIMDLE
 40
0.0
  9
$DIMEXE
 40
1.25
  9
$DIMTP
 40
0.0
  9
$DIMTM
 40
0.0
  9
$DIMTXT
 40
2.5
  9
$DIMCEN
 40
2.5
  9
$DIMTSZ
 40
0.0
  9
$DIMTOL
 70
     0
  9
$DIMLIM
 70
     0
  9
$DIMTIH
 70
     0
  9
$DIMTOH
 70
     0
  9
$DIMSE1
 70
     0
  9
$DIMSE2
 70
     0
  9
$DIMTAD
 70
     1
  9
$DIMZIN
 70
     8
  9
$DIMBLK
  1

  9
$DIMASO
 70
     1
  9
$DIMSHO
 70
     1
  9
$DIMPOST
  1

  9
$DIMAPOST
  1

  9
$DIMALT
 70
     0
  9
$DIMALTD
 70
     3
  9
$DIMALTF
 40
0.03937007874016
  9
$DIMLFAC
 40
1.0
  9
$DIMTOFL
 70
     1
  9
$DIMTVP
 40
0.0
  9
$DIMTIX
 70
     0
  9
$DIMSOXD
 70
     0
  9
$DIMSAH
 70
     0
  9
$DIMBLK1
  1

  9
$DIMBLK2
  1

  9
$DIMSTYLE
  2
ISO-25
  9
$DIMCLRD
 70
     4
  9
$DIMCLRE
 70
     4
  9
$DIMCLRT
 70
     0
  9
$DIMTFAC
 40
1.0
  9
$DIMGAP
 40
0.625
  9
$DIMJUST
 70
     0
  9
$DIMSD1
 70
     0
  9
$DIMSD2
 70
     0
  9
$DIMTOLJ
 70
     0
  9
$DIMTZIN
 70
     8
  9
$DIMALTZ
 70
     0
  9
$DIMALTTZ
 70
     0
  9
$DIMUPT
 70
     0
  9
$DIMDEC
 70
     2
  9
$DIMTDEC
 70
     2
  9
$DIMALTU
 70
     2
  9
$DIMALTTD
 70
     3
  9
$DIMTXSTY
  7
Standard
  9
$DIMAUNIT
 70
     0
  9
$DIMADEC
 70
     0
  9
$DIMALTRND
 40
0.0
  9
$DIMAZIN
 70
     0
  9
$DIMDSEP
 70
    44
  9
$DIMATFIT
 70
     3
  9
$DIMFRAC
 70
     0
  9
$DIMLDRBLK
  1

  9
$DIMLUNIT
 70
     2
  9
$DIMLWD
 70
    -2
  9
$DIMLWE
 70
    -2
  9
$DIMTMOVE
 70
     0
  9
$LUNITS
 70
     2
  9
$LUPREC
 70
     4
  9
$SKETCHINC
 40
1.0
  9
$FILLETRAD
 40
10.0
  9
$AUNITS
 70
     0
  9
$AUPREC
 70
     0
  9
$MENU
  1
.
  9
$ELEVATION
 40
0.0
  9
$PELEVATION
 40
0.0
  9
$THICKNESS
 40
0.0
  9
$LIMCHECK
 70
     0
  9
$CHAMFERA
 40
10.0
  9
$CHAMFERB
 40
10.0
  9
$CHAMFERC
 40
20.0
  9
$CHAMFERD
 40
0.0
  9
$SKPOLY
 70
     0
  9
$TDCREATE
 40
2453637.815442951
  9
$TDUCREATE
 40
2453637.732109617
  9
$TDUPDATE
 40
2453670.685312117
  9
$TDUUPDATE
 40
2453670.601978784
  9
$TDINDWG
 40
0.0669499653
  9
$TDUSRTIMER
 40
0.0669457870
  9
$USRTIMER
 70
     1
  9
$ANGBASE
 50
0.0
  9
$ANGDIR
 70
     0
  9
$PDMODE
 70
     0
  9
$PDSIZE
 40
0.0
  9
$PLINEWID
 40
0.0
  9
$SPLFRAME
 70
     0
  9
$SPLINETYPE
 70
     6
  9
$SPLINESEGS
 70
     8
  9
$HANDSEED
  5
A6D
  9
$SURFTAB1
 70
    12
  9
$SURFTAB2
 70
     6
  9
$SURFTYPE
 70
     6
  9
$SURFU
 70
     6
  9
$SURFV
 70
     6
  9
$UCSBASE
  2

  9
$UCSNAME
  2

  9
$UCSORG
 10
-1469.26874414329
 20
2514.894031162035
 30
1432.825320902205
  9
$UCSXDIR
 10
1.0
 20
0.0
 30
0.0
  9
$UCSYDIR
 10
0.0
 20
-0.0000000000000011
 30
-1.0
  9
$UCSORTHOREF
  2

  9
$UCSORTHOVIEW
 70
     0
  9
$UCSORGTOP
 10
0.0
 20
0.0
 30
0.0
  9
$UCSORGBOTTOM
 10
0.0
 20
0.0
 30
0.0
  9
$UCSORGLEFT
 10
0.0
 20
0.0
 30
0.0
  9
$UCSORGRIGHT
 10
0.0
 20
0.0
 30
0.0
  9
$UCSORGFRONT
 10
0.0
 20
0.0
 30
0.0
  9
$UCSORGBACK
 10
0.0
 20
0.0
 30
0.0
  9
$PUCSBASE
  2

  9
$PUCSNAME
  2

  9
$PUCSORG
 10
0.0
 20
0.0
 30
0.0
  9
$PUCSXDIR
 10
1.0
 20
0.0
 30
0.0
  9
$PUCSYDIR
 10
0.0
 20
1.0
 30
0.0
  9
$PUCSORTHOREF
  2

  9
$PUCSORTHOVIEW
 70
     0
  9
$PUCSORGTOP
 10
0.0
 20
0.0
 30
0.0
  9
$PUCSORGBOTTOM
 10
0.0
 20
0.0
 30
0.0
  9
$PUCSORGLEFT
 10
0.0
 20
0.0
 30
0.0
  9
$PUCSORGRIGHT
 10
0.0
 20
0.0
 30
0.0
  9
$PUCSORGFRONT
 10
0.0
 20
0.0
 30
0.0
  9
$PUCSORGBACK
 10
0.0
 20
0.0
 30
0.0
  9
$USERI1
 70
    50
  9
$USERI2
 70
    17
  9
$USERI3
 70
     2
  9
$USERI4
 70
     0
  9
$USERI5
 70
     6
  9
$USERR1
 40
281.0
  9
$USERR2
 40
321.0
  9
$USERR3
 40
2.5
  9
$USERR4
 40
5.0
  9
$USERR5
 40
0.0
  9
$WORLDVIEW
 70
     1
  9
$SHADEDGE
 70
     3
  9
$SHADEDIF
 70
    70
  9
$TILEMODE
 70
     1
  9
$MAXACTVP
 70
    64
  9
$PINSBASE
 10
0.0
 20
0.0
 30
0.0
  9
$PLIMCHECK
 70
     0
  9
$PEXTMIN
 10
0.0
 20
0.0
 30
0.0
  9
$PEXTMAX
 10
0.0
 20
0.0
 30
0.0
  9
$PLIMMIN
 10
0.0
 20
0.0
  9
$PLIMMAX
 10
12.0
 20
9.0
  9
$UNITMODE
 70
     0
  9
$VISRETAIN
 70
     1
  9
$PLINEGEN
 70
     0
  9
$PSLTSCALE
 70
     1
  9
$TREEDEPTH
 70
  3020
  9
$CMLSTYLE
  2
Standard
  9
$CMLJUST
 70
     0
  9
$CMLSCALE
 40
20.0
  9
$PROXYGRAPHICS
 70
     1
  9
$MEASUREMENT
 70
     1
  9
$CELWEIGHT
370
    -1
  9
$ENDCAPS
280
     0
  9
$JOINSTYLE
280
     0
  9
$LWDISPLAY
290
     0
  9
$INSUNITS
 70
     4
  9
$HYPERLINKBASE
  1

  9
$STYLESHEET
  1

  9
$XEDIT
290
     1
  9
$CEPSNTYPE
380
     0
  9
$PSTYLEMODE
290
     1
  9
$FINGERPRINTGUID
  2
{FDEAD578-A652-11D2-9A35-0060089B3A3F}
  9
$VERSIONGUID
  2
{CD7AA4C2-D578-43A4-B61C-83568D65C35C}
  9
$EXTNAMES
290
     1
  9
$PSVPSCALE
 40
0.0
  9
$OLESTARTUP
290
     0
  0
ENDSEC
  0
SECTION
  2
CLASSES
  0
CLASS
  1
ACDBDICTIONARYWDFLT
  2
AcDbDictionaryWithDefault
  3
AutoCAD 2000
 90
        0
280
     0
281
     0
  0
CLASS
  1
ACDBPLACEHOLDER
  2
AcDbPlaceHolder
  3
AutoCAD 2000
 90
        0
280
     0
281
     0
  0
CLASS
  1
LAYOUT
  2
AcDbLayout
  3
AutoCAD 2000
 90
        0
280
     0
281
     0
  0
CLASS
  1
DICTIONARYVAR
  2
AcDbDictionaryVar
  3
AutoCAD 2000
 90
        0
280
     0
281
     0
  0
CLASS
  1
DIMASSOC
  2
AcDbDimAssoc
  3
"AcDbDimAssoc|Product Desc:     AcDim ARX App For Dimension|Company:          Autodesk, Inc.|WEB Address:      www.autodesk.com"
 90
    32768
280
     0
281
     0
  0
ENDSEC
  0
SECTION
  2
TABLES
  0
TABLE
  2
VPORT
  5
8
330
0
100
AcDbSymbolTable
 70
    39
  0
VPORT
  5
A6C
330
8
100
AcDbSymbolTableRecord
100
AcDbViewportTableRecord
  2
*Active
 70
     0
 10
0.0
 20
0.0
 11
1.0
 21
1.0
 12
-986.2927370429101
 22
-505.585707478609
 13
0.0
 23
0.0
 14
10.0
 24
10.0
 15
10.0
 25
10.0
 16
-1.0
 26
1.0
 36
1.0
 17
0.0
 27
0.0
 37
0.0
 40
2146.188998836981
 41
1.73308957952468
 42
50.0
 43
0.0
 44
0.0
 50
0.0
 51
0.0
 71
     0
 72
   100
 73
     1
 74
     3
 75
     0
 76
     0
 77
     0
 78
     0
281
     0
 65
     1
110
-1469.26874414329
120
2514.894031162035
130
1432.825320902205
111
1.0
121
0.0
131
0.0
112
0.0
122
-0.0000000000000011
132
-1.0
 79
     0
146
0.0
  0
ENDTAB
  0
TABLE
  2
LTYPE
  5
5
330
0
100
AcDbSymbolTable
 70
     1
  0
LTYPE
  5
14
330
5
100
AcDbSymbolTableRecord
100
AcDbLinetypeTableRecord
  2
ByBlock
 70
     0
  3

 72
    65
 73
     0
 40
0.0
  0
LTYPE
  5
15
330
5
100
AcDbSymbolTableRecord
100
AcDbLinetypeTableRecord
  2
ByLayer
 70
     0
  3

 72
    65
 73
     0
 40
0.0
  0
LTYPE
  5
16
330
5
100
AcDbSymbolTableRecord
100
AcDbLinetypeTableRecord
  2
Continuous
 70
     0
  3
Solid line
 72
    65
 73
     0
 40
0.0
  0
ENDTAB
  0
TABLE
  2
LAYER
  5
2
330
0
100
AcDbSymbolTable
 70
     3
  0
LAYER
  5
10
330
2
100
AcDbSymbolTableRecord
100
AcDbLayerTableRecord
  2
0
 70
     0
 62
     7
  6
Continuous
370
    -3
390
F
  0
LAYER
  5
89
330
2
100
AcDbSymbolTableRecord
100
AcDbLayerTableRecord
  2
DEFPOINTS
 70
     0
 62
     7
  6
Continuous
290
     0
370
    -3
390
F
  0
LAYER
  5
8A
330
2
100
AcDbSymbolTableRecord
100
AcDbLayerTableRecord
  2
VZ1
 70
     0
 62
     6
  6
Continuous
370
     0
390
F
  0
ENDTAB
  0
TABLE
  2
STYLE
  5
3
330
0
100
AcDbSymbolTable
 70
     2
  0
STYLE
  5
11
330
3
100
AcDbSymbolTableRecord
100
AcDbTextStyleTableRecord
  2
Standard
 70
     0
 40
0.0
 41
1.0
 50
0.0
 71
     0
 42
1.0
  3
txt
  4

  0
STYLE
  5
8B
330
3
100
AcDbSymbolTableRecord
100
AcDbTextStyleTableRecord
  2
ROMANS
 70
     0
 40
0.0
 41
0.8
 50
0.0
 71
     0
 42
1.0
  3
romans.shx
  4

  0
ENDTAB
  0
TABLE
  2
VIEW
  5
6
330
0
100
AcDbSymbolTable
 70
     0
  0
ENDTAB
  0
TABLE
  2
UCS
  5
7
330
0
100
AcDbSymbolTable
 70
    43
  0
UCS
  5
284
330
7
100
AcDbSymbolTableRecord
100
AcDbUCSTableRecord
  2
UCS
 70
     0
 10
-1703.930114518696
 20
2514.894031162036
 30
1972.134989510348
 11
1.0
 21
0.0
 31
0.0
 12
0.0
 22
-0.0000000000000011
 32
-1.0
 79
     0
146
0.0
  0
UCS
  5
447
330
7
100
AcDbSymbolTableRecord
100
AcDbUCSTableRecord
  2
PP
 70
     0
 10
-1463.725832113711
 20
2514.894031162035
 30
1290.952614817673
 11
1.0
 21
0.0
 31
0.0
 12
0.0
 22
-0.0000000000000011
 32
-1.0
 79
     0
146
0.0
  0
UCS
  5
448
330
7
100
AcDbSymbolTableRecord
100
AcDbUCSTableRecord
  2
tw
 70
     0
 10
-1463.725832113711
 20
2514.894031162035
 30
1290.952614817673
 11
1.0
 21
0.0
 31
0.0
 12
0.0
 22
-0.0000000000000011
 32
-1.0
 79
     0
146
0.0
  0
UCS
  5
44C
330
7
100
AcDbSymbolTableRecord
100
AcDbUCSTableRecord
  2
Vkb
 70
     0
 10
-1443.839653183999
 20
2514.894031162034
 30
1051.383188012271
 11
1.0
 21
0.0000000000000001
 31
0.0
 12
0.0
 22
-0.0000000000000011
 32
-1.0
 79
     0
146
0.0
  0
UCS
  5
44E
330
7
100
AcDbSymbolTableRecord
100
AcDbUCSTableRecord
  2
StredPudor
 70
     0
 10
-1213.839653183999
 20
2514.894031162034
 30
921.3831880122709
 11
1.0
 21
0.0000000000000001
 31
0.0
 12
0.0
 22
-0.0000000000000011
 32
-1.0
 79
     0
146
0.0
  0
UCS
  5
450
330
7
100
AcDbSymbolTableRecord
100
AcDbUCSTableRecord
  2
SS1
 70
     0
 10
-1333.839653183999
 20
2514.894031162034
 30
921.3831880122709
 11
1.0
 21
0.0000000000000001
 31
0.0
 12
0.0
 22
-0.0000000000000011
 32
-1.0
 79
     0
146
0.0
  0
UCS
  5
A3F
330
7
100
AcDbSymbolTableRecord
100
AcDbUCSTableRecord
  2
11
 70
     0
 10
-1413.839653183999
 20
2514.894031162035
 30
1021.383188012271
 11
1.0
 21
0.0
 31
0.0
 12
0.0
 22
-0.0000000000000011
 32
-1.0
 79
     0
146
0.0
  0
ENDTAB
  0
TABLE
  2
APPID
  5
9
330
0
100
AcDbSymbolTable
 70
     1
  0
APPID
  5
12
330
9
100
AcDbSymbolTableRecord
100
AcDbRegAppTableRecord
  2
ACAD
 70
     0
  0
ENDTAB
  0
TABLE
  2
DIMSTYLE
  5
A
330
0
100
AcDbSymbolTable
 70
     2
100
AcDbDimStyleTable
 71
     1
340
27
  0
DIMSTYLE
105
27
330
A
100
AcDbSymbolTableRecord
100
AcDbDimStyleTableRecord
  2
ISO-25
 70
     0
 40
10.0
 41
2.5
 42
0.625
 43
3.75
 44
1.25
 73
     0
 74
     0
 77
     1
 78
     8
140
2.5
141
2.5
143
0.03937007874016
147
0.625
171
     3
172
     1
176
     4
177
     4
271
     2
272
     2
274
     3
278
    44
283
     0
284
     8
340
11
  0
DIMSTYLE
105
8C
330
A
100
AcDbSymbolTableRecord
100
AcDbDimStyleTableRecord
  2
STANDARD
 70
     0
274
     4
279
     2
284
     8
285
     8
286
     8
340
11
  0
ENDTAB
  0
TABLE
  2
BLOCK_RECORD
  5
1
330
0
100
AcDbSymbolTable
 70
    24
  0
BLOCK_RECORD
  5
1F
330
1
100
AcDbSymbolTableRecord
100
AcDbBlockTableRecord
  2
*Model_Space
340
22
  0
BLOCK_RECORD
  5
50
330
1
100
AcDbSymbolTableRecord
100
AcDbBlockTableRecord
  2
*Paper_Space
340
51
  0
BLOCK_RECORD
  5
55
330
1
100
AcDbSymbolTableRecord
100
AcDbBlockTableRecord
  2
*Paper_Space0
340
56
  0
BLOCK_RECORD
  5
7A
330
1
100
AcDbSymbolTableRecord
100
AcDbBlockTableRecord
  2
zakldatnv
340
0
102
{BLKREFS
331
10B
331
119
331
127
331
134
102
}
  0
BLOCK_RECORD
  5
20A
330
1
100
AcDbSymbolTableRecord
100
AcDbBlockTableRecord
  2
ELE260905210658_1
340
0
102
{BLKREFS
331
215
102
}
  0
BLOCK_RECORD
  5
A45
330
1
100
AcDbSymbolTableRecord
100
AcDbBlockTableRecord
  2
znve
340
0
102
{BLKREFS
331
A4C
331
A58
102
}
  0
BLOCK_RECORD
  5
A55
330
1
100
AcDbSymbolTableRecord
100
AcDbBlockTableRecord
  2
ELE261005162559_16
340
0
102
{BLKREFS
331
A62
102
}
  0
ENDTAB
  0
ENDSEC
  0
SECTION
  2
BLOCKS
  0
BLOCK
  5
20
330
1F
100
AcDbEntity
  8
0
100
AcDbBlockBegin
  2
*Model_Space
 70
     0
 10
0.0
 20
0.0
 30
0.0
  3
*Model_Space
  1

  0
ENDBLK
  5
21
330
1F
100
AcDbEntity
  8
0
100
AcDbBlockEnd
  0
BLOCK
  5
52
330
50
100
AcDbEntity
 67
     1
  8
0
100
AcDbBlockBegin
  2
*Paper_Space
 70
     0
 10
0.0
 20
0.0
 30
0.0
  3
*Paper_Space
  1

  0
ENDBLK
  5
53
330
50
100
AcDbEntity
 67
     1
  8
0
100
AcDbBlockEnd
  0
BLOCK
  5
57
330
55
100
AcDbEntity
  8
0
100
AcDbBlockBegin
  2
*Paper_Space0
 70
     0
 10
0.0
 20
0.0
 30
0.0
  3
*Paper_Space0
  1

  0
ENDBLK
  5
58
330
55
100
AcDbEntity
  8
0
100
AcDbBlockEnd
  0
BLOCK
  5
87
330
7A
100
AcDbEntity
  8
0
100
AcDbBlockBegin
  2
zakldatnv
 70
     2
 10
0.0
 20
0.0
 30
0.0
  3
zakldatnv
  1

  0
ATTDEF
  5
7B
330
7A
100
AcDbEntity
  8
0
  6
Continuous
100
AcDbText
 10
0.0
 20
0.0
 30
0.0
 40
1.0
  1
3
 41
0.8
  7
ROMANS
100
AcDbAttributeDefinition
  3

  2
PROM1
 70
     9
  0
ATTDEF
  5
7C
330
7A
100
AcDbEntity
  8
0
  6
Continuous
100
AcDbText
 10
0.0
 20
0.0
 30
0.0
 40
1.0
  1
0
 41
0.8
  7
ROMANS
100
AcDbAttributeDefinition
  3

  2
PROM2
 70
     9
  0
ATTDEF
  5
7D
330
7A
100
AcDbEntity
  8
0
  6
Continuous
100
AcDbText
 10
0.0
 20
0.0
 30
0.0
 40
1.0
  1
vzizol
 41
0.8
  7
ROMANS
100
AcDbAttributeDefinition
  3

  2
PROM3
 70
     9
  0
ATTDEF
  5
7E
330
7A
100
AcDbEntity
  8
0
  6
Continuous
100
AcDbText
 10
0.0
 20
0.0
 30
0.0
 40
1.0
  1
100
 41
0.8
  7
ROMANS
100
AcDbAttributeDefinition
  3

  2
PROM4
 70
     9
  0
ATTDEF
  5
7F
330
7A
100
AcDbEntity
  8
0
  6
Continuous
100
AcDbText
 10
0.0
 20
0.0
 30
0.0
 40
1.0
  1
VOLSPOJ1.VZ1
 41
0.8
  7
ROMANS
100
AcDbAttributeDefinition
  3

  2
PROM5
 70
     9
  0
ATTDEF
  5
80
330
7A
100
AcDbEntity
  8
0
  6
Continuous
100
AcDbText
 10
0.0
 20
0.0
 30
0.0
 40
1.0
  1
2
 41
0.8
  7
ROMANS
100
AcDbAttributeDefinition
  3

  2
PROM6
 70
     9
  0
ATTDEF
  5
81
330
7A
100
AcDbEntity
  8
0
  6
Continuous
100
AcDbText
 10
0.0
 20
0.0
 30
0.0
 40
1.0
  1
0
 41
0.8
  7
ROMANS
100
AcDbAttributeDefinition
  3

  2
PROM7
 70
     9
  0
ATTDEF
  5
82
330
7A
100
AcDbEntity
  8
0
  6
Continuous
100
AcDbText
 10
0.0
 20
0.0
 30
0.0
 40
1.0
  1
1
 41
0.8
  7
ROMANS
100
AcDbAttributeDefinition
  3

  2
PROM8
 70
     9
  0
ATTDEF
  5
83
330
7A
100
AcDbEntity
  8
0
  6
Continuous
100
AcDbText
 10
0.0
 20
0.0
 30
0.0
 40
1.0
  1
0.25
 41
0.8
  7
ROMANS
100
AcDbAttributeDefinition
  3

  2
PROM9
 70
     9
  0
ATTDEF
  5
84
330
7A
100
AcDbEntity
  8
0
  6
Continuous
100
AcDbText
 10
0.0
 20
0.0
 30
0.0
 40
1.0
  1
0.25
 41
0.8
  7
ROMANS
100
AcDbAttributeDefinition
  3

  2
PROM10
 70
     9
  0
ATTDEF
  5
85
330
7A
100
AcDbEntity
  8
0
  6
Continuous
100
AcDbText
 10
0.0
 20
0.0
 30
0.0
 40
1.0
  1
XV
 41
0.8
  7
ROMANS
100
AcDbAttributeDefinition
  3

  2
PROM11
 70
     9
  0
ATTDEF
  5
86
330
7A
100
AcDbEntity
  8
0
  6
Continuous
100
AcDbText
 10
0.0
 20
0.0
 30
0.0
 40
1.0
  1
0000000000000000
 41
0.8
  7
ROMANS
100
AcDbAttributeDefinition
  3

  2
PROM12
 70
     9
  0
ENDBLK
  5
88
330
7A
100
AcDbEntity
  8
0
100
AcDbBlockEnd
  0
BLOCK
  5
20B
330
20A
100
AcDbEntity
  8
0
100
AcDbBlockBegin
  2
ELE260905210658_1
 70
     2
 10
0.0
 20
0.0
 30
0.0
  3
ELE260905210658_1
  1

  0
ATTDEF
  5
20C
330
20A
100
AcDbEntity
  8
0
 62
     2
100
AcDbText
 10
0.0
 20
0.0
 30
0.0
 40
1.0
  1
1003-536
100
AcDbAttributeDefinition
  3

  2
VETA
 70
     1
  0
ATTDEF
  5
20D
330
20A
100
AcDbEntity
  8
0
 62
     2
100
AcDbText
 10
0.0
 20
0.0
 30
0.0
 40
1.0
  1
1
100
AcDbAttributeDefinition
  3

  2
POS
 70
     1
  0
ATTDEF
  5
20E
330
20A
100
AcDbEntity
  8
0
 62
     2
100
AcDbText
 10
0.0
 20
0.0
 30
0.0
 40
1.0
  1
 AXIÁLNÍ VENTILÁTOR HXM 400
100
AcDbAttributeDefinition
  3

  2
NAZEV
 70
     1
  0
ATTDEF
  5
20F
330
20A
100
AcDbEntity
  8
0
 62
     2
100
AcDbText
 10
0.0
 20
0.0
 30
0.0
 40
1.0
  1

100
AcDbAttributeDefinition
  3

  2
TYP
 70
     1
  0
ATTDEF
  5
210
330
20A
100
AcDbEntity
  8
0
 62
     2
100
AcDbText
 10
0.0
 20
0.0
 30
0.0
 40
1.0
  1

100
AcDbAttributeDefinition
  3

  2
ZETA
 70
     1
  0
ATTDEF
  5
211
330
20A
100
AcDbEntity
  8
0
 62
     2
100
AcDbText
 10
0.0
 20
0.0
 30
0.0
 40
1.0
  1

100
AcDbAttributeDefinition
  3

  2
DRUHTLUM
 70
     1
  0
ATTDEF
  5
212
330
20A
100
AcDbEntity
  8
0
 62
     2
100
AcDbText
 10
0.0
 20
0.0
 30
0.0
 40
1.0
  1

100
AcDbAttributeDefinition
  3

  2
USEK
 70
     1
  0
ATTDEF
  5
213
330
20A
100
AcDbEntity
  8
0
 62
     2
100
AcDbText
 10
0.0
 20
0.0
 30
0.0
 40
1.0
  1

100
AcDbAttributeDefinition
  3

  2
PRUTOK
 70
     1
  0
ENDBLK
  5
214
330
20A
100
AcDbEntity
  8
0
100
AcDbBlockEnd
  0
BLOCK
  5
A4A
330
A45
100
AcDbEntity
  8
0
100
AcDbBlockBegin
  2
znve
 70
     0
 10
0.0
 20
0.0
 30
0.0
  3
znve
  1

  0
CIRCLE
  5
A46
330
A45
100
AcDbEntity
  8
0
  6
Continuous
 62
     7
100
AcDbCircle
 10
0.0
 20
0.0
 30
0.0
 40
0.5
  0
LINE
  5
A47
330
A45
100
AcDbEntity
  8
0
  6
Continuous
 62
     7
100
AcDbLine
 10
0.5
 20
0.0
 30
0.0
 11
-0.25
 21
0.4330127018922188
 31
0.0
  0
LINE
  5
A48
330
A45
100
AcDbEntity
  8
0
  6
Continuous
 62
     7
100
AcDbLine
 10
0.5
 20
-0.0000000000000009
 30
0.0
 11
-0.25
 21
-0.4330127018922206
 31
0.0
  0
LINE
  5
A49
330
A45
100
AcDbEntity
  8
0
  6
Continuous
 62
     7
100
AcDbLine
 10
-0.25
 20
0.4330127018922188
 30
0.0
 11
-0.25
 21
-0.4330127018922206
 31
0.0
  0
ENDBLK
  5
A4B
330
A45
100
AcDbEntity
  8
0
100
AcDbBlockEnd
  0
BLOCK
  5
A56
330
A55
100
AcDbEntity
  8
0
100
AcDbBlockBegin
  2
ELE261005162559_16
 70
     2
 10
0.0
 20
0.0
 30
0.0
  3
ELE261005162559_16
  1

  0
3DSOLID
  5
A57
330
A55
100
AcDbEntity
  8
0
100
AcDbModelerGeometry
 70
     1
  1
koo nfh n o         
  1
h J1410(1 nl ^ \VL kqoqm QK mk H:; P<+ mi niemiejn mooj 
  1
rn fqfffffffffffffffj:rooh n:rono 
  1
=0;& {rn {n {rn {rn |
  1
3*2/ {rn {rn {m {o |
  1
,7:33 {rn {rn {rn {l {rn {n |
  1
9><: {rn {k {j {m {rn {i 90-(>-; ,6183: |
  1
9><: {rn {h {g {m {rn {i 90-(>-; ,6183: |
  1
300/ {rn {rn {f {l |
  1
/3>1:r,*-9><: {rn nmj mlo rhoqjooooooooooommh o n mqmmokkiokfmjolnln:roni n o o 90-(>-;@) V V V V |
  1
9><: {rn {no {nn {m {rn {nm -:):-,:; ,6183: |
  1
300/ {rn {rn {nl {k |
  1
<0:;8: {rn {nk {nj {ni {nh 90-(>-; {j {rn |
  1
9><: {rn {ng {nf {m {rn {mo -:):-,:; ,6183: |
  1
300/ {rn {rn {mn {h |
  1
/3>1:r,*-9><: {rn nmj mo rhoqj o n mqmmokkiokfmjolnln:roni n o o 90-(>-;@) V V V V |
  1
<0:;8: {rn {mm {ml {mk {mj 90-(>-; {g {rn |
  1
<0:;8: {rn {nj {f {mi {mh 90-(>-; {j {rn |
  1
<0:;8: {rn {f {nk {mg {mf 90-(>-; {j {rn |
  1
<0:;8: {rn {mk {mk {f {nh -:):-,:; {lo {rn |
  1
:;8: {rn {ln {lm {ni {ll 90-(>-; |
  1
9><: {rn {lk {lj {m {rn {li -:):-,:; ,6183: |
  1
300/ {rn {rn {lh {no |
  1
/3>1:r,*-9><: {rn mo nmj rhoqjooooooooooommh n o o o rn rmqmmokkiokfmjolnln:roni 90-(>-;@) V V V V |
  1
<0:;8: {rn {lg {lf {ko {kn 90-(>-; {nn {rn |
  1
<0:;8: {rn {km {nl {kl {kk 90-(>-; {g {rn |
  1
<0:;8: {rn {nl {kj {ki {kh 90-(>-; {g {rn |
  1
<0:;8: {rn {ni {ni {nl {mj -:):-,:; {lo {rn |
  1
:;8: {rn {lm {ln {mk {ll 90-(>-; |
  1
<0:;8: {rn {ki {kg {nk {mh -:):-,:; {lj {rn |
  1
:;8: {rn {lm {kf {mi {jo 90-(>-; |
  1
<0:;8: {rn {lh {kl {nj {mf -:):-,:; {nf {rn |
  1
:;8: {rn {kf {ln {mg {jn 90-(>-; |
  1
300/ {rn {jm {mk {jl |
  1
):-+:' {rn {nh {jk |
  1
):-+:' {rn {mj {jj |
  1
:336/,:r<*-): {rn ho mlo rfnqoooooooooooommh o rn rmqmmokkiokfmjolnln:roni jo o o n V V |
  1
9><: {rn {ji {jh {m {rn {jg -:):-,:; ,6183: |
  1
300/ {rn {rn {jf {ng |
  1
/3>1:r,*-9><: {rn nmj nmj rnknqooooooooooooml o rmqmmokkiokfmjolnln:roni n o rn rmqmmokkiokfmjolnln:roni 90-(>-;@) V V V V |
  1
<0:;8: {rn {io {mg {kg {in 90-(>-; {nf {rn |
  1
<0:;8: {rn {im {mn {il {ik -:):-,:; {nn {rn |
  1
<0:;8: {rn {mn {im {ij {ii 90-(>-; {nn {rn |
  1
<0:;8: {rn {ih {ig {mn {kn -:):-,:; {jh {rn |
  1
:;8: {rn {if {ho {ko {hn 90-(>-; |
  1
<0:;8: {rn {kj {mm {hm {hl -:):-,:; {g {rn |
  1
<0:;8: {rn {mg {hk {mm {kk -:):-,:; {nf {rn |
  1
:;8: {rn {ln {hj {kl {jn 90-(>-; |
  1
<0:;8: {rn {ml {km {hi {hh 90-(>-; {g {rn |
  1
<0:;8: {rn {jf {mi {ml {kh -:):-,:; {lj {rn |
  1
:;8: {rn {hg {lm {ki {jo 90-(>-; |
  1
<0:;8: {rn {mi {ij {lh {in -:):-,:; {lj {rn |
  1
):-+:' {rn {mh {hf |
  1
,+->687+r<*-): {rn nmj mlo rnkn rn o o V V |
  1
,+->687+r<*-): {rn mo mlo rhoqjooooooooooommh o rmqmmokkiokfmjolnln:roni n V V |
  1
300/ {rn {rn {go {jl |
  1
9><: {rn {gn {lo {m {rn {gm 90-(>-; ,6183: |
  1
/061+ {rn mo mlo rfnqoooooooooooommh |
  1
/061+ {rn ho mlo rnkn |
  1
9><: {rn {gl {gk {m {rn {gj 90-(>-; ,6183: |
  1
300/ {rn {rn {ig {lk |
  1
/3>1:r,*-9><: {rn mlo nmj rhoqjooooooooooommh rn o o o n mqmmokkiokfmjolnln:roni 90-(>-;@) V V V V |
  1
<0:;8: {rn {ij {ki {ih {gi 90-(>-; {lj {rn |
  1
<0:;8: {rn {hk {lh {im {gh -:):-,:; {nf {rn |
  1
:;8: {rn {kf {gg {kg {gf 90-(>-; |
  1
<0:;8: {rn {lf {lg {io {gh 90-(>-; {nn {rn |
  1
<0:;8: {rn {fo {fn {lg {ik 90-(>-; {fm {rn |
  1
:;8: {rn {fl {ho {il {fk 90-(>-; |
  1
<0:;8: {rn {kg {jf {lf {ii -:):-,:; {lj {rn |
  1
:;8: {rn {gg {if {ij {fj 90-(>-; |
  1
<0:;8: {rn {hi {ko {jf {gi -:):-,:; {jh {rn |
  1
<0:;8: {rn {ko {hi {fo {fi -:):-,:; {jh {rn |
  1
):-+:' {rn {kn {fh |
  1
):-+:' {rn {ik {fg |
  1
,+->687+r<*-): {rn mlo mo rhoqj o rmqmmokkiokfmjolnln:roni n V V |
  1
<0:;8: {rn {fn {fo {km {hl 90-(>-; {fm {rn |
  1
:;8: {rn {ff {hj {hm {noo 90-(>-; |
  1
<0:;8: {rn {kl {io {fn {non -:):-,:; {nf {rn |
  1
):-+:' {rn {hl {nom |
  1
<0:;8: {rn {ig {ih {kj {hh -:):-,:; {jh {rn |
  1
:;8: {rn {ff {hg {hi {nol 90-(>-; |
  1
):-+:' {rn {hh {nok |
  1
/061+ {rn mo mlo rnkn |
  1
<0:;8: {rn {go {go {noj {noi -:):-,:; {jm {rn |
  1
9><: {rn {rn {noh {m {rn {nog 90-(>-; ,6183: |
  1
<01:r,*-9><: {rn ho mjo rfnqoooooooooooommh o n mqmmokkiokfmjolnln:roni jo o o n V V o n jo 90-(>-; V V V V |
  1
9><: {rn {nof {nno {m {rn {nnn -:):-,:; ,6183: |
  1
300/ {rn {rn {nnm {ji |
  1
/3>1:r,*-9><: {rn nmj mjoqooooooooooookj hqkfffffffffffhhmi o n mqmmokkiokfmjolnln:roni n o o 90-(>-;@) V V V V |
  1
:;8: {rn {hg {if {ih {nnl 90-(>-; |
  1
:;8: {rn {fl {gg {io {nnk 90-(>-; |
  1
):-+:' {rn {ii {nnj |
  1
,+->687+r<*-): {rn mo nmj rnknqooooooooooooml o rn rmqmmokkiokfmjolnln:roni V V |
  1
<0:;8: {rn {hm {il {ig {fi 90-(>-; {fm {rn |
  1
<0:;8: {rn {il {hm {hk {non 90-(>-; {fm {rn |
  1
300/ {rn {nni {il {nnh |
  1
):-+:' {rn {ik {nng |
  1
,+->687+r<*-): {rn nmj mo rmqmhlhlihjkklmlmoi:ronl n o o V V |
  1
,+->687+r<*-): {rn nmj mo rnkn n o o V V |
  1
:;8: {rn {ho {ff {fo {nnf 90-(>-; |
  1
/061+ {rn mlo mo rnkn |
  1
/061+ {rn mlo mo rmqmhlhlihjkklmlmoi:ronl |
  1
):-+:' {rn {hl {nmo |
  1
,+->687+r<*-): {rn nmj mlo o rn o o V V |
  1
:;8: {rn {hj {fl {fn {nmn 90-(>-; |
  1
/061+ {rn mo mlo rmqmhlhlihjkklmlmoi:ronl |
  1
,+->687+r<*-): {rn mlo mlo rhoqjooooooooooommh o mqmmokkiokfmjolnln:roni rn V V |
  1
/061+ {rn mlo mlo rnkn |
  1
<0:;8: {rn {noj {noj {go {noi 90-(>-; {noh {rn |
  1
:;8: {rn {nmm {nmm {noj {nml 90-(>-; |
  1
300/ {rn {rn {noj {gn |
  1
/3>1:r,*-9><: {rn ho mho rfnqoooooooooooommh o n mqmmokkiokfmjolnln:roni n o o 90-(>-;@) V V V V |
  1
9><: {rn {nmk {nmj {m {rn {nmi -:):-,:; ,6183: |
  1
300/ {rn {rn {nmh {gl |
  1
/3>1:r,*-9><: {rn nmj kqjkhkhljoggikiknm:ronl hqj o n mqmmokkiokfmjolnln:roni n o o 90-(>-;@) V V V V |
  1
<0:;8: {rn {nmg {nmf {nlo {nln 90-(>-; {gk {rn |
  1
,+->687+r<*-): {rn mlo nmj rnknqooooooooooooml o rn rmqmmokkiokfmjolnln:roni V V |
  1
,+->687+r<*-): {rn mo mo rhoqj o mqmmokkiokfmjolnln:roni rn V V |
  1
/061+ {rn mo mo rnkn |
  1
300/ {rn {rn {nlm {nnh |
  1
9><: {rn {nll {fm {m {rn {nlk -:):-,:; ,6183: |
  1
/061+ {rn mo mo rmqmhlhlihjkklmlmoi:ronl |
  1
,+->687+r<*-): {rn mlo nmj rmqmhlhlihjkklmlmoi:ronl o n mqmmokkiokfmjolnln:roni V V |
  1
/061+ {rn mlo mlo rmqmhlhlihjkklmlmoi:ronl |
  1
,+->687+r<*-): {rn mo nmj rmqmhlhlihjkklmlmoi:ronl o rn rmqmmokkiokfmjolnln:roni V V |
  1
):-+:' {rn {noi {nlj |
  1
:336/,:r<*-): {rn ho mho rfnqoooooooooooommh o n mqmmokkiokfmjolnln:roni jo o o n V V |
  1
9><: {rn {nnh {nli {m {rn {nlh -:):-,:; ,6183: |
  1
300/ {rn {rn {nlg {nof |
  1
/3>1:r,*-9><: {rn nmj nmjqooooooooooookj nkqffffffffffffhhl o mqmmokkiokfmjolnln:roni rn o n mqmmokkiokfmjolnln:roni 90-(>-;@) V V V V |
  1
<0:;8: {rn {nlf {nko {nkn {nkm 90-(>-; {nno {rn |
  1
<0:;8: {rn {nkl {nnm {nkk {nkj 90-(>-; {gk {rn |
  1
<0:;8: {rn {nnm {nkl {nki {nkh 90-(>-; {gk {rn |
  1
<0:;8: {rn {nkg {nkf {nnm {nln -:):-,:; {njo {rn |
  1
:;8: {rn {njn {njm {nlo {njl 90-(>-; |
  1
<0:;8: {rn {njk {nkk {nkf {njj 90-(>-; {nni {rn |
  1
9><: {rn {jl {njo {m {rn {nji -:):-,:; ,6183: |
  1
/3>1:r,*-9><: {rn nmj nmjqooooooooooookj rmqmhlhlihjkklmlmoi:ronl o rmqmmokkiokfmjolnln:roni n o rn rmqmmokkiokfmjolnln:roni 90-(>-;@) V V V V |
  1
/061+ {rn nmo mho rfnqoooooooooooommh |
  1
300/ {rn {rn {njh {nmk |
  1
/3>1:r,*-9><: {rn o nmjqooooooooooookj hqkfffffffffffhhmi n o o o rn rmqmmokkiokfmjolnln:roni 90-(>-;@) V V V V |
  1
<0:;8: {rn {njg {nki {njf {nio 90-(>-; {nmj {rn |
  1
<0:;8: {rn {nin {nmh {njg {nim 90-(>-; {nno {rn |
  1
<0:;8: {rn {nmh {nin {njk {nil 90-(>-; {nno {rn |
  1
<0:;8: {rn {nkf {nkg {nmh {nkm -:):-,:; {njo {rn |
  1
:;8: {rn {nik {nij {nkn {nii 90-(>-; |
  1
<0:;8: {rn {nmf {nmg {nih {nig 90-(>-; {gk {rn |
  1
<0:;8: {rn {nlm {nif {nmg {nkj -:):-,:; {nni {rn |
  1
:;8: {rn {njm {nho {nkk {nhn 90-(>-; |
  1
<0:;8: {rn {nlg {nhm {nmf {nkh -:):-,:; {nmj {rn |
  1
:;8: {rn {nhl {njn {nki {nhk 90-(>-; |
  1
<0:;8: {rn {nkn {nlo {nhm {nhj 90-(>-; {njo {rn |
  1
<0:;8: {rn {nlo {nkn {nlm {njj -:):-,:; {njo {rn |
  1
300/ {rn {rn {nkg {nll |
  1
):-+:' {rn {nln {nhi |
  1
):-+:' {rn {nln {nhh |
  1
,+->687+r<*-): {rn mjo mjoqooooooooooookj hqkfffffffffffhhmi o mqmmokkiokfmjolnln:roni rn V V |
  1
<0:;8: {rn {nif {nlm {nko {nil -:):-,:; {nni {rn |
  1
:;8: {rn {njm {nik {nkf {nhg 90-(>-; |
  1
/3>1:r,*-9><: {rn mjo nmjqooooooooooookj hqkfffffffffffhhmi rn o o o n mqmmokkiokfmjolnln:roni 90-(>-;@) V V V V |
  1
<0:;8: {rn {nhf {nih {nif {ngo 90-(>-; {nli {rn |
  1
<0:;8: {rn {nhm {nlg {nlf {nim -:):-,:; {nmj {rn |
  1
<0:;8: {rn {nih {nhf {nlg {nio -:):-,:; {nli {rn |
  1
:;8: {rn {nhl {ngn {njf {ngm 90-(>-; |
  1
<0:;8: {rn {nko {nlf {nhf {ngl 90-(>-; {nno {rn |
  1
:;8: {rn {nij {ngn {njg {ngk 90-(>-; |
  1
:;8: {rn {ngj {nik {njk {ngi 90-(>-; |
  1
):-+:' {rn {nkm {ngh |
  1
):-+:' {rn {nhj {ngg |
  1
,+->687+r<*-): {rn mjo kqjkhkhljoggikiknm:ronl hqj o rmqmmokkiokfmjolnln:roni n V V |
  1
<0:;8: {rn {njh {njf {nkl {nig -:):-,:; {nli {rn |
  1
:;8: {rn {nho {nhl {nih {ngf 90-(>-; |
  1
<0:;8: {rn {nkk {njk {njh {ngo -:):-,:; {nni {rn |
  1
):-+:' {rn {nkj {nfo |
  1
,+->687+r<*-): {rn nmj mjoqooooooooooookj rmqmhlhlihjkklmlmoi:ronl rn o o V V |
  1
<0:;8: {rn {nki {njg {nkg {nhj -:):-,:; {nmj {rn |
  1
):-+:' {rn {nig {nfn |
  1
,+->687+r<*-): {rn nmj mjoqooooooooooookj nkqffffffffffffhhl n o o V V |
  1
:;8: {rn {njn {nij {nkg {nfm 90-(>-; |
  1
/061+ {rn mjo mjoqooooooooooookj nkqffffffffffffhhl |
  1
/061+ {rn mjo mjoqooooooooooookj rmqmhlhlihjkklmlmoi:ronl |
  1
,+->687+r<*-): {rn mjo nmjqooooooooooookj rmqmhlhlihjkklmlmoi:ronl o rn rmqmmokkiokfmjolnln:roni V V |
  1
<0:;8: {rn {njf {njh {nin {ngl -:):-,:; {nli {rn |
  1
:;8: {rn {nho {ngj {nif {nfl 90-(>-; |
  1
):-+:' {rn {ngl {nfk |
  1
,+->687+r<*-): {rn o nmjqooooooooooookj nkqffffffffffffhhl o rn rmqmmokkiokfmjolnln:roni V V |
  1
:;8: {rn {ngn {ngj {nhf {nfj 90-(>-; |
  1
,+->687+r<*-): {rn nmj kqjkhkhljoggikiknm:ronl nj rn o o V V |
  1
):-+:' {rn {nil {nfi |
  1
,+->687+r<*-): {rn nmj kqjkhkhljoggikiknm:ronl o n o o V V |
  1
/061+ {rn mjo kqjkhkhljoggikiknm:ronl o |
  1
/061+ {rn mjo kqjkhkhljoggikiknm:ronl nj |
  1
,+->687+r<*-): {rn o mjoqooooooooooookj hqkfffffffffffhhmi o rmqmmokkiokfmjolnln:roni n V V |
  1
/061+ {rn o mjoqooooooooooookj rmqmhlhlihjkklmlmoi:ronl |
  1
/061+ {rn o mjoqooooooooooookj nkqffffffffffffhhl |
  1
,+->687+r<*-): {rn mjo nmjqooooooooooookj nkqffffffffffffhhl o rn rmqmmokkiokfmjolnln:roni V V |
  1
,+->687+r<*-): {rn o nmjqooooooooooookj rmqmhlhlihjkklmlmoi:ronl o rn rmqmmokkiokfmjolnln:roni V V |
  1
/061+ {rn o kqjkhkhljoggikiknm:ronl nj |
  1
,+->687+r<*-): {rn o kqjkhkhljoggikiknm:ronl hqj o mqmmokkiokfmjolnln:roni rn V V |
  1
/061+ {rn o kqjkhkhljoggikiknm:ronl o |
  0
INSERT
  5
A58
330
A55
100
AcDbEntity
  8
0
100
AcDbBlockReference
  2
znve
 10
125.0
 20
124.9999999999981
 30
16.00000000000341
 41
175.0
 42
175.0
 43
175.0
  0
ATTDEF
  5
A59
330
A55
100
AcDbEntity
  8
0
100
AcDbText
 10
0.0
 20
-0.000000000001819
 30
0.0000000000034106
 40
1.0
  1
1003-3011
100
AcDbAttributeDefinition
  3

  2
VETA
 70
     1
  0
ATTDEF
  5
A5A
330
A55
100
AcDbEntity
  8
0
100
AcDbText
 10
0.0
 20
-0.000000000001819
 30
0.0000000000034106
 40
1.0
  1
1
100
AcDbAttributeDefinition
  3

  2
POS
 70
     1
  0
ATTDEF
  5
A5B
330
A55
100
AcDbEntity
  8
0
100
AcDbText
 10
0.0
 20
-0.000000000001819
 30
0.0000000000034106
 40
1.0
  1
 MALÝ RADIÁLNÍ VENTILÁTOR FFCF 234 S
100
AcDbAttributeDefinition
  3

  2
NAZEV
 70
     1
  0
ATTDEF
  5
A5C
330
A55
100
AcDbEntity
  8
0
100
AcDbText
 10
0.0
 20
-0.000000000001819
 30
0.0000000000034106
 40
1.0
  1

100
AcDbAttributeDefinition
  3

  2
TYP
 70
     1
  0
ATTDEF
  5
A5D
330
A55
100
AcDbEntity
  8
0
100
AcDbText
 10
0.0
 20
-0.000000000001819
 30
0.0000000000034106
 40
1.0
  1

100
AcDbAttributeDefinition
  3

  2
ZETA
 70
     1
  0
ATTDEF
  5
A5E
330
A55
100
AcDbEntity
  8
0
100
AcDbText
 10
0.0
 20
-0.000000000001819
 30
0.0000000000034106
 40
1.0
  1

100
AcDbAttributeDefinition
  3

  2
DRUHTLUM
 70
     1
  0
ATTDEF
  5
A5F
330
A55
100
AcDbEntity
  8
0
100
AcDbText
 10
0.0
 20
-0.000000000001819
 30
0.0000000000034106
 40
1.0
  1

100
AcDbAttributeDefinition
  3

  2
USEK
 70
     1
  0
ATTDEF
  5
A60
330
A55
100
AcDbEntity
  8
0
100
AcDbText
 10
0.0
 20
-0.000000000001819
 30
0.0000000000034106
 40
1.0
  1

100
AcDbAttributeDefinition
  3

  2
PRUTOK
 70
     1
  0
ENDBLK
  5
A61
330
A55
100
AcDbEntity
  8
0
100
AcDbBlockEnd
  0
ENDSEC
  0
SECTION
  2
ENTITIES
  0
INSERT
  5
10B
330
1F
100
AcDbEntity
  8
VZ1
  6
Continuous
 62
     1
100
AcDbBlockReference
 66
     1
  2
zakldatnv
 10
467.9263084122712
 20
305.3305762987581
 30
0.0
  0
ATTRIB
  5
10C
330
10B
100
AcDbEntity
  8
VZ1
  6
Continuous
 62
     1
100
AcDbText
 10
467.9263084122712
 20
305.3305762987581
 30
0.0
 40
2.5
  1
0000000000000000
 41
0.8
  7
ROMANS
100
AcDbAttribute
  2
PROM12
 70
     1
  0
ATTRIB
  5
10D
330
10B
100
AcDbEntity
  8
VZ1
  6
Continuous
 62
     1
100
AcDbText
 10
467.9263084122712
 20
305.3305762987581
 30
0.0
 40
2.5
  1
XV
 41
0.8
  7
ROMANS
100
AcDbAttribute
  2
PROM11
 70
     1
  0
ATTRIB
  5
10E
330
10B
100
AcDbEntity
  8
VZ1
  6
Continuous
 62
     1
100
AcDbText
 10
467.9263084122712
 20
305.3305762987581
 30
0.0
 40
2.5
  1
0.25
 41
0.8
  7
ROMANS
100
AcDbAttribute
  2
PROM10
 70
     1
  0
ATTRIB
  5
10F
330
10B
100
AcDbEntity
  8
VZ1
  6
Continuous
 62
     1
100
AcDbText
 10
467.9263084122712
 20
305.3305762987581
 30
0.0
 40
2.5
  1
0.25
 41
0.8
  7
ROMANS
100
AcDbAttribute
  2
PROM9
 70
     1
  0
ATTRIB
  5
110
330
10B
100
AcDbEntity
  8
VZ1
  6
Continuous
 62
     1
100
AcDbText
 10
467.9263084122712
 20
305.3305762987581
 30
0.0
 40
2.5
  1
1
 41
0.8
  7
ROMANS
100
AcDbAttribute
  2
PROM8
 70
     1
  0
ATTRIB
  5
111
330
10B
100
AcDbEntity
  8
VZ1
  6
Continuous
 62
     1
100
AcDbText
 10
467.9263084122712
 20
305.3305762987581
 30
0.0
 40
2.5
  1
0
 41
0.8
  7
ROMANS
100
AcDbAttribute
  2
PROM7
 70
     1
  0
ATTRIB
  5
112
330
10B
100
AcDbEntity
  8
VZ1
  6
Continuous
 62
     1
100
AcDbText
 10
467.9263084122712
 20
305.3305762987581
 30
0.0
 40
2.5
  1
2
 41
0.8
  7
ROMANS
100
AcDbAttribute
  2
PROM6
 70
     1
  0
ATTRIB
  5
113
330
10B
100
AcDbEntity
  8
VZ1
  6
Continuous
 62
     1
100
AcDbText
 10
467.9263084122712
 20
305.3305762987581
 30
0.0
 40
2.5
  1
VOLSPOJ1.VZ1
 41
0.8
  7
ROMANS
100
AcDbAttribute
  2
PROM5
 70
     1
  0
ATTRIB
  5
114
330
10B
100
AcDbEntity
  8
VZ1
  6
Continuous
 62
     1
100
AcDbText
 10
467.9263084122712
 20
305.3305762987581
 30
0.0
 40
2.5
  1
100
 41
0.8
  7
ROMANS
100
AcDbAttribute
  2
PROM4
 70
     1
  0
ATTRIB
  5
115
330
10B
100
AcDbEntity
  8
VZ1
  6
Continuous
 62
     1
100
AcDbText
 10
467.9263084122712
 20
305.3305762987581
 30
0.0
 40
2.5
  1
vzizol
 41
0.8
  7
ROMANS
100
AcDbAttribute
  2
PROM3
 70
     1
  0
ATTRIB
  5
116
330
10B
100
AcDbEntity
  8
VZ1
  6
Continuous
 62
     1
100
AcDbText
 10
467.9263084122712
 20
305.3305762987581
 30
0.0
 40
2.5
  1
VZ1
 41
0.8
  7
ROMANS
100
AcDbAttribute
  2
PROM2
 70
     1
  0
ATTRIB
  5
117
330
10B
100
AcDbEntity
  8
VZ1
  6
Continuous
 62
     1
100
AcDbText
 10
467.9263084122712
 20
305.3305762987581
 30
0.0
 40
2.5
  1
3
 41
0.8
  7
ROMANS
100
AcDbAttribute
  2
PROM1
 70
     1
  0
SEQEND
  5
118
330
10B
100
AcDbEntity
  8
VZ1
  6
Continuous
 62
     1
  0
INSERT
  5
119
330
1F
100
AcDbEntity
  8
VZ1
  6
Continuous
100
AcDbBlockReference
 66
     1
  2
zakldatnv
 10
467.9263084122712
 20
305.3305762987581
 30
0.0
  0
ATTRIB
  5
11A
330
119
100
AcDbEntity
  8
VZ1
  6
Continuous
 62
     1
100
AcDbText
 10
467.9263084122712
 20
305.3305762987581
 30
0.0
 40
2.5
  1
0000000000000011
 41
0.8
  7
ROMANS
100
AcDbAttribute
  2
PROM12
 70
     9
  0
ATTRIB
  5
11B
330
119
100
AcDbEntity
  8
VZ1
  6
Continuous
 62
     1
100
AcDbText
 10
467.9263084122712
 20
305.3305762987581
 30
0.0
 40
2.5
  1
XV
 41
0.8
  7
ROMANS
100
AcDbAttribute
  2
PROM11
 70
     9
  0
ATTRIB
  5
11C
330
119
100
AcDbEntity
  8
VZ1
  6
Continuous
 62
     1
100
AcDbText
 10
467.9263084122712
 20
305.3305762987581
 30
0.0
 40
2.5
  1
0
 41
0.8
  7
ROMANS
100
AcDbAttribute
  2
PROM10
 70
     9
  0
ATTRIB
  5
11D
330
119
100
AcDbEntity
  8
VZ1
  6
Continuous
 62
     1
100
AcDbText
 10
467.9263084122712
 20
305.3305762987581
 30
0.0
 40
2.5
  1
0
 41
0.8
  7
ROMANS
100
AcDbAttribute
  2
PROM9
 70
     9
  0
ATTRIB
  5
11E
330
119
100
AcDbEntity
  8
VZ1
  6
Continuous
 62
     1
100
AcDbText
 10
467.9263084122712
 20
305.3305762987581
 30
0.0
 40
2.5
  1
1
 41
0.8
  7
ROMANS
100
AcDbAttribute
  2
PROM8
 70
     9
  0
ATTRIB
  5
11F
330
119
100
AcDbEntity
  8
VZ1
  6
Continuous
 62
     1
100
AcDbText
 10
467.9263084122712
 20
305.3305762987581
 30
0.0
 40
2.5
  1
0
 41
0.8
  7
ROMANS
100
AcDbAttribute
  2
PROM7
 70
     9
  0
ATTRIB
  5
120
330
119
100
AcDbEntity
  8
VZ1
  6
Continuous
 62
     1
100
AcDbText
 10
467.9263084122712
 20
305.3305762987581
 30
0.0
 40
2.5
  1
2
 41
0.8
  7
ROMANS
100
AcDbAttribute
  2
PROM6
 70
     9
  0
ATTRIB
  5
121
330
119
100
AcDbEntity
  8
VZ1
  6
Continuous
 62
     1
100
AcDbText
 10
467.9263084122712
 20
305.3305762987581
 30
0.0
 40
2.5
  1
VOLSPOJ1.VZ1
 41
0.8
  7
ROMANS
100
AcDbAttribute
  2
PROM5
 70
     9
  0
ATTRIB
  5
122
330
119
100
AcDbEntity
  8
VZ1
  6
Continuous
 62
     1
100
AcDbText
 10
467.9263084122712
 20
305.3305762987581
 30
0.0
 40
2.5
  1
100
 41
0.8
  7
ROMANS
100
AcDbAttribute
  2
PROM4
 70
     9
  0
ATTRIB
  5
123
330
119
100
AcDbEntity
  8
VZ1
  6
Continuous
 62
     1
100
AcDbText
 10
467.9263084122712
 20
305.3305762987581
 30
0.0
 40
2.5
  1
vzizol
 41
0.8
  7
ROMANS
100
AcDbAttribute
  2
PROM3
 70
     9
  0
ATTRIB
  5
124
330
119
100
AcDbEntity
  8
VZ1
  6
Continuous
 62
     1
100
AcDbText
 10
467.9263084122712
 20
305.3305762987581
 30
0.0
 40
2.5
  1
VZ1
 41
0.8
  7
ROMANS
100
AcDbAttribute
  2
PROM2
 70
     9
  0
ATTRIB
  5
125
330
119
100
AcDbEntity
  8
VZ1
  6
Continuous
 62
     1
100
AcDbText
 10
467.9263084122712
 20
305.3305762987581
 30
0.0
 40
2.5
  1
3
 41
0.8
  7
ROMANS
100
AcDbAttribute
  2
PROM1
 70
     9
  0
SEQEND
  5
126
330
119
100
AcDbEntity
  8
VZ1
  6
Continuous
  0
INSERT
  5
127
330
1F
100
AcDbEntity
  8
0
  6
Continuous
100
AcDbBlockReference
 66
     1
  2
zakldatnv
 10
467.9263084122712
 20
305.3305762987581
 30
0.0
  0
ATTRIB
  5
128
330
127
100
AcDbEntity
  8
0
  6
Continuous
100
AcDbText
 10
467.9263084122712
 20
305.3305762987581
 30
0.0
 40
1.0
  1
3
 41
0.8
  7
ROMANS
100
AcDbAttribute
  2
PROM1
 70
     9
  0
ATTRIB
  5
129
330
127
100
AcDbEntity
  8
0
  6
Continuous
100
AcDbText
 10
467.9263084122712
 20
305.3305762987581
 30
0.0
 40
1.0
  1
VZ1
 41
0.8
  7
ROMANS
100
AcDbAttribute
  2
PROM2
 70
     9
  0
ATTRIB
  5
12A
330
127
100
AcDbEntity
  8
0
  6
Continuous
100
AcDbText
 10
467.9263084122712
 20
305.3305762987581
 30
0.0
 40
1.0
  1
vzizol
 41
0.8
  7
ROMANS
100
AcDbAttribute
  2
PROM3
 70
     9
  0
ATTRIB
  5
12B
330
127
100
AcDbEntity
  8
0
  6
Continuous
100
AcDbText
 10
467.9263084122712
 20
305.3305762987581
 30
0.0
 40
1.0
  1
100
 41
0.8
  7
ROMANS
100
AcDbAttribute
  2
PROM4
 70
     9
  0
ATTRIB
  5
12C
330
127
100
AcDbEntity
  8
0
  6
Continuous
100
AcDbText
 10
467.9263084122712
 20
305.3305762987581
 30
0.0
 40
1.0
  1
VOLSPOJ1.VZ1
 41
0.8
  7
ROMANS
100
AcDbAttribute
  2
PROM5
 70
     9
  0
ATTRIB
  5
12D
330
127
100
AcDbEntity
  8
0
  6
Continuous
100
AcDbText
 10
467.9263084122712
 20
305.3305762987581
 30
0.0
 40
1.0
  1
0
 41
0.8
  7
ROMANS
100
AcDbAttribute
  2
PROM7
 70
     9
  0
ATTRIB
  5
12E
330
127
100
AcDbEntity
  8
0
  6
Continuous
100
AcDbText
 10
467.9263084122712
 20
305.3305762987581
 30
0.0
 40
1.0
  1
1
 41
0.8
  7
ROMANS
100
AcDbAttribute
  2
PROM8
 70
     9
  0
ATTRIB
  5
12F
330
127
100
AcDbEntity
  8
0
  6
Continuous
100
AcDbText
 10
467.9263084122712
 20
305.3305762987581
 30
0.0
 40
1.0
  1
0
 41
0.8
  7
ROMANS
100
AcDbAttribute
  2
PROM9
 70
     9
  0
ATTRIB
  5
130
330
127
100
AcDbEntity
  8
0
  6
Continuous
100
AcDbText
 10
467.9263084122712
 20
305.3305762987581
 30
0.0
 40
1.0
  1
0
 41
0.8
  7
ROMANS
100
AcDbAttribute
  2
PROM10
 70
     9
  0
ATTRIB
  5
131
330
127
100
AcDbEntity
  8
0
  6
Continuous
100
AcDbText
 10
467.9263084122712
 20
305.3305762987581
 30
0.0
 40
1.0
  1
XV
 41
0.8
  7
ROMANS
100
AcDbAttribute
  2
PROM11
 70
     9
  0
ATTRIB
  5
132
330
127
100
AcDbEntity
  8
0
  6
Continuous
100
AcDbText
 10
467.9263084122712
 20
305.3305762987581
 30
0.0
 40
1.0
  1
0000000000000011
 41
0.8
  7
ROMANS
100
AcDbAttribute
  2
PROM12
 70
     9
  0
SEQEND
  5
133
330
127
100
AcDbEntity
  8
0
  6
Continuous
  0
INSERT
  5
134
330
1F
100
AcDbEntity
  8
0
  6
Continuous
100
AcDbBlockReference
 66
     1
  2
zakldatnv
 10
467.9263084122712
 20
305.3305762987581
 30
0.0
  0
ATTRIB
  5
135
330
134
100
AcDbEntity
  8
0
  6
Continuous
100
AcDbText
 10
467.9263084122712
 20
305.3305762987581
 30
0.0
 40
1.0
  1
3
 41
0.8
  7
ROMANS
100
AcDbAttribute
  2
PROM1
 70
     9
  0
ATTRIB
  5
136
330
134
100
AcDbEntity
  8
0
  6
Continuous
100
AcDbText
 10
467.9263084122712
 20
305.3305762987581
 30
0.0
 40
1.0
  1
VZ1
 41
0.8
  7
ROMANS
100
AcDbAttribute
  2
PROM2
 70
     9
  0
ATTRIB
  5
137
330
134
100
AcDbEntity
  8
0
  6
Continuous
100
AcDbText
 10
467.9263084122712
 20
305.3305762987581
 30
0.0
 40
1.0
  1
vzizol
 41
0.8
  7
ROMANS
100
AcDbAttribute
  2
PROM3
 70
     9
  0
ATTRIB
  5
138
330
134
100
AcDbEntity
  8
0
  6
Continuous
100
AcDbText
 10
467.9263084122712
 20
305.3305762987581
 30
0.0
 40
1.0
  1
100
 41
0.8
  7
ROMANS
100
AcDbAttribute
  2
PROM4
 70
     9
  0
ATTRIB
  5
139
330
134
100
AcDbEntity
  8
0
  6
Continuous
100
AcDbText
 10
467.9263084122712
 20
305.3305762987581
 30
0.0
 40
1.0
  1
VOLSPOJ1.VZ1
 41
0.8
  7
ROMANS
100
AcDbAttribute
  2
PROM5
 70
     9
  0
ATTRIB
  5
13A
330
134
100
AcDbEntity
  8
0
  6
Continuous
100
AcDbText
 10
467.9263084122712
 20
305.3305762987581
 30
0.0
 40
1.0
  1
2
 41
0.8
  7
ROMANS
100
AcDbAttribute
  2
PROM6
 70
     9
  0
ATTRIB
  5
13B
330
134
100
AcDbEntity
  8
0
  6
Continuous
100
AcDbText
 10
467.9263084122712
 20
305.3305762987581
 30
0.0
 40
1.0
  1
0
 41
0.8
  7
ROMANS
100
AcDbAttribute
  2
PROM7
 70
     9
  0
ATTRIB
  5
13C
330
134
100
AcDbEntity
  8
0
  6
Continuous
100
AcDbText
 10
467.9263084122712
 20
305.3305762987581
 30
0.0
 40
1.0
  1
1
 41
0.8
  7
ROMANS
100
AcDbAttribute
  2
PROM8
 70
     9
  0
ATTRIB
  5
13D
330
134
100
AcDbEntity
  8
0
  6
Continuous
100
AcDbText
 10
467.9263084122712
 20
305.3305762987581
 30
0.0
 40
1.0
  1
0.25
 41
0.8
  7
ROMANS
100
AcDbAttribute
  2
PROM9
 70
     9
  0
ATTRIB
  5
13E
330
134
100
AcDbEntity
  8
0
  6
Continuous
100
AcDbText
 10
467.9263084122712
 20
305.3305762987581
 30
0.0
 40
1.0
  1
0.25
 41
0.8
  7
ROMANS
100
AcDbAttribute
  2
PROM10
 70
     9
  0
ATTRIB
  5
13F
330
134
100
AcDbEntity
  8
0
  6
Continuous
100
AcDbText
 10
467.9263084122712
 20
305.3305762987581
 30
0.0
 40
1.0
  1
XV
 41
0.8
  7
ROMANS
100
AcDbAttribute
  2
PROM11
 70
     9
  0
ATTRIB
  5
140
330
134
100
AcDbEntity
  8
0
  6
Continuous
100
AcDbText
 10
467.9263084122712
 20
305.3305762987581
 30
0.0
 40
1.0
  1
0000000000000000
 41
0.8
  7
ROMANS
100
AcDbAttribute
  2
PROM12
 70
     9
  0
SEQEND
  5
141
330
134
100
AcDbEntity
  8
0
  6
Continuous
  0
INSERT
  5
215
330
1F
100
AcDbEntity
  8
0
 62
     2
100
AcDbBlockReference
 66
     1
  2
ELE260905210658_1
 10
9666.188660249755
 20
0.0000000000040493
 30
-18236.26937188142
210
0.0
220
-1.0
230
0.0000000000000002
  0
ATTRIB
  5
216
330
215
100
AcDbEntity
  8
0
 62
     2
100
AcDbText
 10
9666.188660249755
 20
0.0000000000040493
 30
-18236.26937188142
 40
1.0
  1
1003-536
210
0.0
220
-1.0
230
0.0000000000000002
100
AcDbAttribute
  2
VETA
 70
     1
  0
ATTRIB
  5
217
330
215
100
AcDbEntity
  8
0
 62
     2
100
AcDbText
 10
9666.188660249755
 20
0.0000000000040493
 30
-18236.26937188142
 40
1.0
  1
1
210
0.0
220
-1.0
230
0.0000000000000002
100
AcDbAttribute
  2
POS
 70
     1
  0
ATTRIB
  5
218
330
215
100
AcDbEntity
  8
0
 62
     2
100
AcDbText
 10
9666.188660249755
 20
0.0000000000040493
 30
-18236.26937188142
 40
1.0
  1
 AXIÁLNÍ VENTILÁTOR HXM 400
210
0.0
220
-1.0
230
0.0000000000000002
100
AcDbAttribute
  2
NAZEV
 70
     1
  0
ATTRIB
  5
219
330
215
100
AcDbEntity
  8
0
 62
     2
100
AcDbText
 10
9666.188660249755
 20
0.0000000000040493
 30
-18236.26937188142
 40
1.0
  1

210
0.0
220
-1.0
230
0.0000000000000002
100
AcDbAttribute
  2
TYP
 70
     1
  0
ATTRIB
  5
21A
330
215
100
AcDbEntity
  8
0
 62
     2
100
AcDbText
 10
9666.188660249755
 20
0.0000000000040493
 30
-18236.26937188142
 40
1.0
  1

210
0.0
220
-1.0
230
0.0000000000000002
100
AcDbAttribute
  2
ZETA
 70
     1
  0
ATTRIB
  5
21B
330
215
100
AcDbEntity
  8
0
 62
     2
100
AcDbText
 10
9666.188660249755
 20
0.0000000000040493
 30
-18236.26937188142
 40
1.0
  1

210
0.0
220
-1.0
230
0.0000000000000002
100
AcDbAttribute
  2
DRUHTLUM
 70
     1
  0
ATTRIB
  5
21C
330
215
100
AcDbEntity
  8
0
 62
     2
100
AcDbText
 10
9666.188660249755
 20
0.0000000000040493
 30
-18236.26937188142
 40
1.0
  1

210
0.0
220
-1.0
230
0.0000000000000002
100
AcDbAttribute
  2
USEK
 70
     1
  0
ATTRIB
  5
21D
330
215
100
AcDbEntity
  8
0
 62
     2
100
AcDbText
 10
9666.188660249755
 20
0.0000000000040493
 30
-18236.26937188142
 40
1.0
  1

210
0.0
220
-1.0
230
0.0000000000000002
100
AcDbAttribute
  2
PRUTOK
 70
     1
  0
SEQEND
  5
21E
330
215
100
AcDbEntity
  8
0
 62
     2
  0
CIRCLE
  5
A44
330
1F
100
AcDbEntity
  8
0
100
AcDbCircle
 10
1399.26874414329
 20
1341.825320902208
 30
2784.894031162034
 40
70.0
210
0.0
220
1.0
230
-0.0000000000000011
  0
INSERT
  5
A62
330
1F
100
AcDbEntity
  8
0
100
AcDbBlockReference
 66
     1
  2
ELE261005162559_16
 10
-1469.26874414329
 20
2514.894031162033
 30
1432.825320902209
  0
ATTRIB
  5
A63
330
A62
100
AcDbEntity
  8
0
100
AcDbText
 10
-1469.26874414329
 20
2514.894031162032
 30
1432.825320902212
 40
1.0
  1
1003-3011
100
AcDbAttribute
  2
VETA
 70
     1
  0
ATTRIB
  5
A64
330
A62
100
AcDbEntity
  8
0
100
AcDbText
 10
-1469.26874414329
 20
2514.894031162032
 30
1432.825320902212
 40
1.0
  1
1
100
AcDbAttribute
  2
POS
 70
     1
  0
ATTRIB
  5
A65
330
A62
100
AcDbEntity
  8
0
100
AcDbText
 10
-1469.26874414329
 20
2514.894031162032
 30
1432.825320902212
 40
1.0
  1
 MALÝ RADIÁLNÍ VENTILÁTOR FFCF 234 S
100
AcDbAttribute
  2
NAZEV
 70
     1
  0
ATTRIB
  5
A66
330
A62
100
AcDbEntity
  8
0
100
AcDbText
 10
-1469.26874414329
 20
2514.894031162032
 30
1432.825320902212
 40
1.0
  1

100
AcDbAttribute
  2
TYP
 70
     1
  0
ATTRIB
  5
A67
330
A62
100
AcDbEntity
  8
0
100
AcDbText
 10
-1469.26874414329
 20
2514.894031162032
 30
1432.825320902212
 40
1.0
  1

100
AcDbAttribute
  2
ZETA
 70
     1
  0
ATTRIB
  5
A68
330
A62
100
AcDbEntity
  8
0
100
AcDbText
 10
-1469.26874414329
 20
2514.894031162032
 30
1432.825320902212
 40
1.0
  1

100
AcDbAttribute
  2
DRUHTLUM
 70
     1
  0
ATTRIB
  5
A69
330
A62
100
AcDbEntity
  8
0
100
AcDbText
 10
-1469.26874414329
 20
2514.894031162032
 30
1432.825320902212
 40
1.0
  1

100
AcDbAttribute
  2
USEK
 70
     1
  0
ATTRIB
  5
A6A
330
A62
100
AcDbEntity
  8
0
100
AcDbText
 10
-1469.26874414329
 20
2514.894031162032
 30
1432.825320902212
 40
1.0
  1

100
AcDbAttribute
  2
PRUTOK
 70
     1
  0
SEQEND
  5
A6B
330
A62
100
AcDbEntity
  8
0
  0
ENDSEC
  0
SECTION
  2
OBJECTS
  0
DICTIONARY
  5
C
330
0
100
AcDbDictionary
281
     1
  3
ACAD_GROUP
350
D
  3
ACAD_LAYOUT
350
1A
  3
ACAD_MLINESTYLE
350
17
  3
ACAD_PLOTSETTINGS
350
19
  3
ACAD_PLOTSTYLENAME
350
E
  3
AcDbVariableDictionary
350
5E
  0
DICTIONARY
  5
D
102
{ACAD_REACTORS
330
C
102
}
330
C
100
AcDbDictionary
281
     1
  0
DICTIONARY
  5
1A
102
{ACAD_REACTORS
330
C
102
}
330
C
100
AcDbDictionary
281
     1
  3
Model
350
22
  3
Rozvržení1
350
51
  3
Rozvržení2
350
56
  0
DICTIONARY
  5
17
102
{ACAD_REACTORS
330
C
102
}
330
C
100
AcDbDictionary
281
     1
  3
Standard
350
18
  0
DICTIONARY
  5
19
102
{ACAD_REACTORS
330
C
102
}
330
C
100
AcDbDictionary
281
     1
  0
ACDBDICTIONARYWDFLT
  5
E
102
{ACAD_REACTORS
330
C
102
}
330
C
100
AcDbDictionary
281
     1
  3
Normal
350
F
100
AcDbDictionaryWithDefault
340
F
  0
DICTIONARY
  5
5E
102
{ACAD_REACTORS
330
C
102
}
330
C
100
AcDbDictionary
281
     1
  3
DIMASSOC
350
5F
  3
HIDETEXT
350
63
  0
LAYOUT
  5
22
102
{ACAD_REACTORS
330
1A
102
}
330
1A
100
AcDbPlotSettings
  1

  2
none_device
  4
ANSI_A_(8.50_x_11.00_Inches)
  6

 40
6.349999904632568
 41
19.04999923706054
 42
6.350006103515625
 43
19.04998779296875
 44
215.8999938964843
 45
279.3999938964843
 46
0.0
 47
0.0
 48
0.0
 49
0.0
140
0.0
141
0.0
142
1.0
143
78.436453180766
 70
 11952
 72
     0
 73
     1
 74
     0
  7

 75
     0
147
0.0127491741332998
148
0.0
149
0.0
100
AcDbLayout
  1
Model
 70
     1
 71
     0
 10
0.0
 20
0.0
 11
12.0
 21
9.0
 12
0.0
 22
0.0
 32
0.0
 14
0.0
 24
0.0
 34
0.0
 15
0.0
 25
0.0
 35
0.0
146
0.0
 13
0.0
 23
0.0
 33
0.0
 16
1.0
 26
0.0
 36
0.0
 17
0.0
 27
1.0
 37
0.0
 76
     0
330
1F
  0
LAYOUT
  5
51
102
{ACAD_REACTORS
330
1A
102
}
330
1A
100
AcDbPlotSettings
  1

  2
None
  4

  6

 40
0.0
 41
0.0
 42
0.0
 43
0.0
 44
0.0
 45
0.0
 46
0.0
 47
0.0
 48
0.0
 49
0.0
140
0.0
141
0.0
142
1.0
143
1.0
 70
   688
 72
     0
 73
     0
 74
     5
  7

 75
    16
147
1.0
148
0.0
149
0.0
100
AcDbLayout
  1
Rozvržení1
 70
     1
 71
     1
 10
0.0
 20
0.0
 11
12.0
 21
9.0
 12
0.0
 22
0.0
 32
0.0
 14
0.0
 24
0.0
 34
0.0
 15
0.0
 25
0.0
 35
0.0
146
0.0
 13
0.0
 23
0.0
 33
0.0
 16
1.0
 26
0.0
 36
0.0
 17
0.0
 27
1.0
 37
0.0
 76
     0
330
50
  0
LAYOUT
  5
56
102
{ACAD_REACTORS
330
1A
102
}
330
1A
100
AcDbPlotSettings
  1

  2
None
  4

  6

 40
0.0
 41
0.0
 42
0.0
 43
0.0
 44
0.0
 45
0.0
 46
0.0
 47
0.0
 48
0.0
 49
0.0
140
0.0
141
0.0
142
1.0
143
1.0
 70
   688
 72
     0
 73
     0
 74
     5
  7

 75
    16
147
1.0
148
0.0
149
0.0
100
AcDbLayout
  1
Rozvržení2
 70
     1
 71
     2
 10
0.0
 20
0.0
 11
12.0
 21
9.0
 12
0.0
 22
0.0
 32
0.0
 14
0.0
 24
0.0
 34
0.0
 15
0.0
 25
0.0
 35
0.0
146
0.0
 13
0.0
 23
0.0
 33
0.0
 16
1.0
 26
0.0
 36
0.0
 17
0.0
 27
1.0
 37
0.0
 76
     0
330
55
  0
MLINESTYLE
  5
18
102
{ACAD_REACTORS
330
17
102
}
330
17
100
AcDbMlineStyle
  2
STANDARD
 70
     0
  3

 62
   256
 51
90.0
 52
90.0
 71
     2
 49
0.5
 62
   256
  6
BYLAYER
 49
-0.5
 62
   256
  6
BYLAYER
  0
ACDBPLACEHOLDER
  5
F
102
{ACAD_REACTORS
330
E
102
}
330
E
  0
DICTIONARYVAR
  5
5F
102
{ACAD_REACTORS
330
5E
102
}
330
5E
100
DictionaryVariables
280
     0
  1
2
  0
DICTIONARYVAR
  5
63
102
{ACAD_REACTORS
330
5E
102
}
330
5E
100
DictionaryVariables
280
     0
  1
1
  0
ENDSEC
  0
EOF
