  0
SECTION
  2
HEADER
  9
$ACADVER
  1
AC1014
  9
$ACADMAINTVER
 70
     0
  9
$DWGCODEPAGE
  3
ANSI_1250
  9
$INSBASE
 10
0.0
 20
0.0
 30
0.0
  9
$EXTMIN
 10
-398.506866
 20
-598.506866
 30
248.234839
  9
$EXTMAX
 10
798.506866
 20
598.506866
 30
904.038987
  9
$LIMMIN
 10
0.0
 20
0.0
  9
$LIMMAX
 10
420.0
 20
297.0
  9
$ORTHOMODE
 70
     0
  9
$REGENMODE
 70
     1
  9
$FILLMODE
 70
     0
  9
$QTEXTMODE
 70
     0
  9
$MIRRTEXT
 70
     1
  9
$DRAGMODE
 70
     2
  9
$LTSCALE
 40
1.0
  9
$OSMODE
 70
    37
  9
$ATTMODE
 70
     1
  9
$TEXTSIZE
 40
1.0
  9
$TRACEWID
 40
1.0
  9
$TEXTSTYLE
  7
ROMANS
  9
$CLAYER
  8
VZ1
  9
$CELTYPE
  6
CONTINUOUS
  9
$CECOLOR
 62
   256
  9
$CELTSCALE
 40
1.0
  9
$DELOBJ
 70
     1
  9
$DISPSILH
 70
     0
  9
$DIMSCALE
 40
1.0
  9
$DIMASZ
 40
2.0
  9
$DIMEXO
 40
0.625
  9
$DIMDLI
 40
3.75
  9
$DIMRND
 40
1.0
  9
$DIMDLE
 40
0.0
  9
$DIMEXE
 40
1.0
  9
$DIMTP
 40
0.0
  9
$DIMTM
 40
0.0
  9
$DIMTXT
 40
2.5
  9
$DIMCEN
 40
-100.0
  9
$DIMTSZ
 40
0.0
  9
$DIMTOL
 70
     0
  9
$DIMLIM
 70
     0
  9
$DIMTIH
 70
     0
  9
$DIMTOH
 70
     0
  9
$DIMSE1
 70
     0
  9
$DIMSE2
 70
     0
  9
$DIMTAD
 70
     1
  9
$DIMZIN
 70
     8
  9
$DIMBLK
  1

  9
$DIMASO
 70
     1
  9
$DIMSHO
 70
     1
  9
$DIMPOST
  1

  9
$DIMAPOST
  1

  9
$DIMALT
 70
     0
  9
$DIMALTD
 70
     4
  9
$DIMALTF
 40
0.0394
  9
$DIMLFAC
 40
1.0
  9
$DIMTOFL
 70
     1
  9
$DIMTVP
 40
2.0
  9
$DIMTIX
 70
     0
  9
$DIMSOXD
 70
     0
  9
$DIMSAH
 70
     1
  9
$DIMBLK1
  1
_OBLIQUE
  9
$DIMBLK2
  1
_OBLIQUE
  9
$DIMSTYLE
  2
STANEK
  9
$DIMCLRD
 70
     1
  9
$DIMCLRE
 70
     1
  9
$DIMCLRT
 70
     1
  9
$DIMTFAC
 40
2.2
  9
$DIMGAP
 40
0.625
  9
$DIMJUST
 70
     0
  9
$DIMSD1
 70
     0
  9
$DIMSD2
 70
     0
  9
$DIMTOLJ
 70
     1
  9
$DIMTZIN
 70
     8
  9
$DIMALTZ
 70
     8
  9
$DIMALTTZ
 70
     8
  9
$DIMFIT
 70
     5
  9
$DIMUPT
 70
     0
  9
$DIMUNIT
 70
     2
  9
$DIMDEC
 70
     4
  9
$DIMTDEC
 70
     4
  9
$DIMALTU
 70
     2
  9
$DIMALTTD
 70
     4
  9
$DIMTXSTY
  7
ROMANS
  9
$DIMAUNIT
 70
     0
  9
$LUNITS
 70
     2
  9
$LUPREC
 70
     4
  9
$SKETCHINC
 40
1.0
  9
$FILLETRAD
 40
10.0
  9
$AUNITS
 70
     0
  9
$AUPREC
 70
     0
  9
$MENU
  1
.
  9
$ELEVATION
 40
0.0
  9
$PELEVATION
 40
0.0
  9
$THICKNESS
 40
0.0
  9
$LIMCHECK
 70
     0
  9
$BLIPMODE
 70
     0
  9
$CHAMFERA
 40
10.0
  9
$CHAMFERB
 40
10.0
  9
$CHAMFERC
 40
0.0
  9
$CHAMFERD
 40
0.0
  9
$SKPOLY
 70
     0
  9
$TDCREATE
 40
2450990.465911806
  9
$TDUPDATE
 40
2452955.501729050
  9
$TDINDWG
 40
0.3497248843
  9
$TDUSRTIMER
 40
0.3497248843
  9
$USRTIMER
 70
     1
  9
$ANGBASE
 50
0.0
  9
$ANGDIR
 70
     0
  9
$PDMODE
 70
     3
  9
$PDSIZE
 40
-10.0
  9
$PLINEWID
 40
0.0
  9
$COORDS
 70
     1
  9
$SPLFRAME
 70
     0
  9
$SPLINETYPE
 70
     6
  9
$SPLINESEGS
 70
     8
  9
$ATTDIA
 70
     0
  9
$ATTREQ
 70
     1
  9
$HANDLING
 70
     1
  9
$HANDSEED
  5
E14
  9
$SURFTAB1
 70
    12
  9
$SURFTAB2
 70
     6
  9
$SURFTYPE
 70
     6
  9
$SURFU
 70
     6
  9
$SURFV
 70
     6
  9
$UCSNAME
  2

  9
$UCSORG
 10
200.0
 20
0.0000000000000265
 30
276.0
  9
$UCSXDIR
 10
1.0
 20
0.0
 30
0.0
  9
$UCSYDIR
 10
0.0
 20
1.0
 30
0.0
  9
$PUCSNAME
  2

  9
$PUCSORG
 10
0.0
 20
0.0
 30
0.0
  9
$PUCSXDIR
 10
1.0
 20
0.0
 30
0.0
  9
$PUCSYDIR
 10
0.0
 20
1.0
 30
0.0
  9
$USERI1
 70
     1
  9
$USERI2
 70
    10
  9
$USERI3
 70
     2
  9
$USERI4
 70
     2
  9
$USERI5
 70
     6
  9
$USERR1
 40
281.0
  9
$USERR2
 40
321.0
  9
$USERR3
 40
0.0
  9
$USERR4
 40
0.0
  9
$USERR5
 40
0.0
  9
$WORLDVIEW
 70
     1
  9
$SHADEDGE
 70
     3
  9
$SHADEDIF
 70
    70
  9
$TILEMODE
 70
     1
  9
$MAXACTVP
 70
    48
  9
$PINSBASE
 10
0.0
 20
0.0
 30
0.0
  9
$PLIMCHECK
 70
     0
  9
$PEXTMIN
 10
1.000000E+20
 20
1.000000E+20
 30
1.000000E+20
  9
$PEXTMAX
 10
-1.000000E+20
 20
-1.000000E+20
 30
-1.000000E+20
  9
$PLIMMIN
 10
0.0
 20
0.0
  9
$PLIMMAX
 10
420.0
 20
297.0
  9
$UNITMODE
 70
     0
  9
$VISRETAIN
 70
     1
  9
$PLINEGEN
 70
     0
  9
$PSLTSCALE
 70
     1
  9
$TREEDEPTH
 70
  3020
  9
$PICKSTYLE
 70
     1
  9
$CMLSTYLE
  2
STANDARD
  9
$CMLJUST
 70
     0
  9
$CMLSCALE
 40
1.0
  9
$PROXYGRAPHICS
 70
     1
  9
$MEASUREMENT
 70
     0
  0
ENDSEC
  0
SECTION
  2
CLASSES
  0
CLASS
  1
DICTIONARYVAR
  2
AcDbDictionaryVar
  3
"AutoCAD"
 90
        0
280
     0
281
     0
  0
ENDSEC
  0
SECTION
  2
TABLES
  0
TABLE
  2
VPORT
  5
81B
100
AcDbSymbolTable
 70
     3
  0
VPORT
  5
E13
100
AcDbSymbolTableRecord
100
AcDbViewportTableRecord
  2
*ACTIVE
 70
     0
 10
0.0
 20
0.0
 11
1.0
 21
1.0
 12
180.931877
 22
403.865613
 13
0.0
 23
0.0
 14
10.0
 24
10.0
 15
10.0
 25
10.0
 16
-1.460931
 26
-4.168734
 36
1.182686
 17
0.0
 27
0.0
 37
0.0
 40
1343.895407
 41
1.525194
 42
50.0
 43
0.0
 44
0.0
 50
0.0
 51
0.0
 71
     0
 72
   100
 73
     1
 74
     1
 75
     0
 76
     0
 77
     0
 78
     0
  0
ENDTAB
  0
TABLE
  2
LTYPE
  5
818
100
AcDbSymbolTable
 70
    11
  0
LTYPE
  5
824
100
AcDbSymbolTableRecord
100
AcDbLinetypeTableRecord
  2
BYBLOCK
 70
     0
  3

 72
    65
 73
     0
 40
0.0
  0
LTYPE
  5
825
100
AcDbSymbolTableRecord
100
AcDbLinetypeTableRecord
  2
BYLAYER
 70
     0
  3

 72
    65
 73
     0
 40
0.0
  0
LTYPE
  5
826
100
AcDbSymbolTableRecord
100
AcDbLinetypeTableRecord
  2
CONTINUOUS
 70
     0
  3
Solid line
 72
    65
 73
     0
 40
0.0
  0
LTYPE
  5
832
100
AcDbSymbolTableRecord
100
AcDbLinetypeTableRecord
  2
DASHED
 70
     0
  3
Dashed __ __ __ __ __ __ __ __ __ __ __ __ __ _
 72
    65
 73
     2
 40
19.05
 49
12.7
 74
     0
 49
-6.35
 74
     0
  0
LTYPE
  5
833
100
AcDbSymbolTableRecord
100
AcDbLinetypeTableRecord
  2
CENTER
 70
     0
  3
Center ____ _ ____ _ ____ _ ____ _ ____ _ ____
 72
    65
 73
     4
 40
50.8
 49
31.75
 74
     0
 49
-6.35
 74
     0
 49
6.35
 74
     0
 49
-6.35
 74
     0
  0
LTYPE
  5
834
100
AcDbSymbolTableRecord
100
AcDbLinetypeTableRecord
  2
DASHED2
 70
     0
  3
Dashed (.5x) _ _ _ _ _ _ _ _ _ _ _ _ _ _ _ _ _
 72
    65
 73
     2
 40
9.525
 49
6.35
 74
     0
 49
-3.175
 74
     0
  0
LTYPE
  5
8F0
100
AcDbSymbolTableRecord
100
AcDbLinetypeTableRecord
  2
HIDDEN
 70
     0
  3
_ _ _ _ _ _ _ _ _ _ _ _ _ _ _ _ _ _ _ _ _ _ _
 72
    65
 73
     2
 40
0.375
 49
0.25
 74
     0
 49
-0.125
 74
     0
  0
LTYPE
  5
8F1
100
AcDbSymbolTableRecord
100
AcDbLinetypeTableRecord
  2
CENTRE
 70
     0
  3
____ _ ____ _ ____ _ ____ _ ____ _ ____ _ ____
 72
    65
 73
     4
 40
2.0
 49
1.25
 74
     0
 49
-0.25
 74
     0
 49
0.25
 74
     0
 49
-0.25
 74
     0
  0
LTYPE
  5
8F2
100
AcDbSymbolTableRecord
100
AcDbLinetypeTableRecord
  2
PHANTOM
 70
     0
  3
_____ _ _ _____ _ _ _____ _ _ _____ _ _ ____
 72
    65
 73
     6
 40
2.5
 49
1.25
 74
     0
 49
-0.25
 74
     0
 49
0.25
 74
     0
 49
-0.25
 74
     0
 49
0.25
 74
     0
 49
-0.25
 74
     0
  0
LTYPE
  5
8F3
100
AcDbSymbolTableRecord
100
AcDbLinetypeTableRecord
  2
DOT
 70
     0
  3
...............................................
 72
    65
 73
     2
 40
0.25
 49
0.0
 74
     0
 49
-0.25
 74
     0
  0
LTYPE
  5
8F4
100
AcDbSymbolTableRecord
100
AcDbLinetypeTableRecord
  2
DASHDOT
 70
     0
  3
__ . __ . __ . __ . __ . __ . __ . __ . __ . __
 72
    65
 73
     4
 40
1.0
 49
0.5
 74
     0
 49
-0.25
 74
     0
 49
0.0
 74
     0
 49
-0.25
 74
     0
  0
LTYPE
  5
8F5
100
AcDbSymbolTableRecord
100
AcDbLinetypeTableRecord
  2
BORDER
 70
     0
  3
__ __ . __ __ . __ __ . __ __ . __ __ . __ __
 72
    65
 73
     6
 40
1.75
 49
0.5
 74
     0
 49
-0.25
 74
     0
 49
0.5
 74
     0
 49
-0.25
 74
     0
 49
0.0
 74
     0
 49
-0.25
 74
     0
  0
LTYPE
  5
8F6
100
AcDbSymbolTableRecord
100
AcDbLinetypeTableRecord
  2
DIVIDE
 70
     0
  3
__ . . __ . . __ . . __ . . __ . . __ . . __
 72
    65
 73
     6
 40
1.25
 49
0.5
 74
     0
 49
-0.25
 74
     0
 49
0.0
 74
     0
 49
-0.25
 74
     0
 49
0.0
 74
     0
 49
-0.25
 74
     0
  0
ENDTAB
  0
TABLE
  2
LAYER
  5
815
100
AcDbSymbolTable
 70
     8
  0
LAYER
  5
821
100
AcDbSymbolTableRecord
100
AcDbLayerTableRecord
  2
0
 70
     0
 62
     7
  6
CONTINUOUS
  0
LAYER
  5
838
100
AcDbSymbolTableRecord
100
AcDbLayerTableRecord
  2
DEFPOINTS
 70
     0
 62
     7
  6
CONTINUOUS
  0
LAYER
  5
839
100
AcDbSymbolTableRecord
100
AcDbLayerTableRecord
  2
VZ1
 70
     0
 62
     7
  6
CONTINUOUS
  0
LAYER
  5
83A
100
AcDbSymbolTableRecord
100
AcDbLayerTableRecord
  2
VZRAM
 70
     0
 62
     7
  6
CONTINUOUS
  0
LAYER
  5
8F7
100
AcDbSymbolTableRecord
100
AcDbLayerTableRecord
  2
VZ2
 70
     0
 62
     4
  6
CONTINUOUS
  0
LAYER
  5
8F8
100
AcDbSymbolTableRecord
100
AcDbLayerTableRecord
  2
VZ8
 70
     0
 62
     7
  6
CONTINUOUS
  0
LAYER
  5
C56
100
AcDbSymbolTableRecord
100
AcDbLayerTableRecord
  2
VZ99
 70
     0
 62
     7
  6
CONTINUOUS
  0
LAYER
  5
CFE
100
AcDbSymbolTableRecord
100
AcDbLayerTableRecord
  2
ASHADE
 70
     4
 62
     7
  6
CONTINUOUS
  0
ENDTAB
  0
TABLE
  2
STYLE
  5
816
100
AcDbSymbolTable
 70
     4
  0
STYLE
  5
822
100
AcDbSymbolTableRecord
100
AcDbTextStyleTableRecord
  2
STANDARD
 70
     0
 40
0.0
 41
0.8
 50
0.0
 71
     0
 42
2.5
  3
txt.shx
  4

  0
STYLE
  5
830
100
AcDbSymbolTableRecord
100
AcDbTextStyleTableRecord
  2

 70
     1
 40
0.0
 41
1.0
 50
0.0
 71
     0
 42
2.5
  3
ltypeshp.shx
  4

  0
STYLE
  5
831
100
AcDbSymbolTableRecord
100
AcDbTextStyleTableRecord
  2
ROMANS
 70
     0
 40
50.0
 41
0.8
 50
0.0
 71
     0
 42
1.0
  3
romans.shx
  4

  0
STYLE
  5
CFB
100
AcDbSymbolTableRecord
100
AcDbTextStyleTableRecord
  2
ASHADE
 70
     0
 40
0.2
 41
1.0
 50
0.0
 71
     0
 42
1.0
  3
simplex.shx
  4

  0
ENDTAB
  0
TABLE
  2
VIEW
  5
819
100
AcDbSymbolTable
 70
     0
  0
ENDTAB
  0
TABLE
  2
UCS
  5
81A
100
AcDbSymbolTable
 70
     5
  0
UCS
  5
845
100
AcDbSymbolTableRecord
100
AcDbUCSTableRecord
  2
1
 70
     0
 10
200.0
 20
0.0000000000000265
 30
276.0
 11
1.0
 21
0.0
 31
0.0
 12
0.0
 22
1.0
 32
0.0
  0
UCS
  5
855
100
AcDbSymbolTableRecord
100
AcDbUCSTableRecord
  2
VO
 70
     0
 10
200.0
 20
0.0000000000000265
 30
276.0
 11
1.0
 21
0.0
 31
0.0
 12
0.0
 22
1.0
 32
0.0
  0
UCS
  5
863
100
AcDbSymbolTableRecord
100
AcDbUCSTableRecord
  2
PUVUCS
 70
     0
 10
0.0
 20
0.0
 30
0.0
 11
1.0
 21
0.0
 31
0.0
 12
0.0
 22
1.0
 32
0.0
  0
UCS
  5
ADD
100
AcDbSymbolTableRecord
100
AcDbUCSTableRecord
  2
MOJE
 70
     0
 10
200.0
 20
0.0000000000000265
 30
276.0
 11
0.5000000000000004
 21
-0.8660254037844385
 31
0.0
 12
0.8660254037844385
 22
0.5000000000000004
 32
0.0
  0
UCS
  5
ADE
100
AcDbSymbolTableRecord
100
AcDbUCSTableRecord
  2
KOLMO
 70
     0
 10
200.0
 20
0.0000000000000265
 30
276.0
 11
-0.0000000000000012
 21
0.0000000000000019
 31
-1.0
 12
0.8660254037844385
 22
0.5000000000000004
 32
0.0
  0
ENDTAB
  0
TABLE
  2
APPID
  5
81C
100
AcDbSymbolTable
 70
     6
  0
APPID
  5
823
100
AcDbSymbolTableRecord
100
AcDbRegAppTableRecord
  2
ACAD
 70
     0
  0
APPID
  5
CFC
100
AcDbSymbolTableRecord
100
AcDbRegAppTableRecord
  2
AVE_RENDER
 70
     0
  0
APPID
  5
CFD
100
AcDbSymbolTableRecord
100
AcDbRegAppTableRecord
  2
AVE_ENTITY_MATERIAL
 70
     0
  0
APPID
  5
D0A
100
AcDbSymbolTableRecord
100
AcDbRegAppTableRecord
  2
AVE_FINISH
 70
     0
  0
APPID
  5
D0B
100
AcDbSymbolTableRecord
100
AcDbRegAppTableRecord
  2
AVE_MATERIAL
 70
     0
  0
APPID
  5
D0C
100
AcDbSymbolTableRecord
100
AcDbRegAppTableRecord
  2
AVE_GLOBAL
 70
     0
  0
ENDTAB
  0
TABLE
  2
DIMSTYLE
  5
81D
100
AcDbSymbolTable
 70
     2
  0
DIMSTYLE
105
836
100
AcDbSymbolTableRecord
100
AcDbDimStyleTableRecord
  2
STANDARD
 70
     0
  3

  4

  5

  6

  7

 40
1.0
 41
0.18
 42
0.0625
 43
0.38
 44
0.18
 45
0.0
 46
0.0
 47
0.0
 48
0.0
140
0.18
141
0.09
142
0.0
143
25.4
144
1.0
145
0.0
146
1.0
147
0.09
 71
     0
 72
     0
 73
     1
 74
     1
 75
     0
 76
     0
 77
     0
 78
     0
170
     0
171
     2
172
     0
173
     0
174
     0
175
     0
176
     0
177
     0
178
     0
270
     2
271
     4
272
     4
273
     2
274
     4
340
831
275
     0
280
     0
281
     0
282
     0
283
     1
284
     8
285
     8
286
     8
287
     5
288
     0
  0
DIMSTYLE
105
837
100
AcDbSymbolTableRecord
100
AcDbDimStyleTableRecord
  2
STANEK
 70
     0
  3

  4

  5

  6
_OBLIQUE
  7
_OBLIQUE
 40
0.0
 41
2.0
 42
0.625
 43
3.75
 44
1.0
 45
1.0
 46
0.0
 47
0.0
 48
0.0
140
2.2
141
-100.0
142
0.0
143
0.0394
144
2.2
145
2.0
146
2.2
147
0.625
 71
     0
 72
     0
 73
     0
 74
     0
 75
     0
 76
     0
 77
     1
 78
     8
170
     0
171
     4
172
     1
173
     1
174
     0
175
     0
176
     1
177
     1
178
     1
270
     2
271
     4
272
     4
273
     2
274
     4
340
831
275
     0
280
     0
281
     0
282
     0
283
     1
284
     8
285
     8
286
     8
287
     5
288
     0
  0
ENDTAB
  0
TABLE
  2
BLOCK_RECORD
  5
814
100
AcDbSymbolTable
 70
    31
  0
BLOCK_RECORD
  5
82A
100
AcDbSymbolTableRecord
100
AcDbBlockTableRecord
  2
*MODEL_SPACE
  0
BLOCK_RECORD
  5
827
100
AcDbSymbolTableRecord
100
AcDbBlockTableRecord
  2
*PAPER_SPACE
  0
BLOCK_RECORD
  5
82F
100
AcDbSymbolTableRecord
100
AcDbBlockTableRecord
  2
_OBLIQUE
  0
BLOCK_RECORD
  5
866
100
AcDbSymbolTableRecord
100
AcDbBlockTableRecord
  2
*X1
  0
BLOCK_RECORD
  5
87C
100
AcDbSymbolTableRecord
100
AcDbBlockTableRecord
  2
SMERA
  0
BLOCK_RECORD
  5
8B0
100
AcDbSymbolTableRecord
100
AcDbBlockTableRecord
  2
ZNVE
  0
BLOCK_RECORD
  5
8BF
100
AcDbSymbolTableRecord
100
AcDbBlockTableRecord
  2
ELE123V103_0
  0
BLOCK_RECORD
  5
8DC
100
AcDbSymbolTableRecord
100
AcDbBlockTableRecord
  2
ELE123V103_1
  0
BLOCK_RECORD
  5
8F9
100
AcDbSymbolTableRecord
100
AcDbBlockTableRecord
  2
VE011
  0
BLOCK_RECORD
  5
958
100
AcDbSymbolTableRecord
100
AcDbBlockTableRecord
  2
ELE123V103_2
  0
BLOCK_RECORD
  5
982
100
AcDbSymbolTableRecord
100
AcDbBlockTableRecord
  2
ELE123V103_3
  0
BLOCK_RECORD
  5
997
100
AcDbSymbolTableRecord
100
AcDbBlockTableRecord
  2
ELE123V103_4
  0
BLOCK_RECORD
  5
ADF
100
AcDbSymbolTableRecord
100
AcDbBlockTableRecord
  2
VE041
  0
BLOCK_RECORD
  5
B20
100
AcDbSymbolTableRecord
100
AcDbBlockTableRecord
  2
ELE123V103_5
  0
BLOCK_RECORD
  5
B37
100
AcDbSymbolTableRecord
100
AcDbBlockTableRecord
  2
3D-VDA-200
  0
BLOCK_RECORD
  5
B5D
100
AcDbSymbolTableRecord
100
AcDbBlockTableRecord
  2
ELE-225-3D_6
  0
BLOCK_RECORD
  5
B6D
100
AcDbSymbolTableRecord
100
AcDbBlockTableRecord
  2
ZNAKM
  0
BLOCK_RECORD
  5
BD0
100
AcDbSymbolTableRecord
100
AcDbBlockTableRecord
  2
ZNAKE
  0
BLOCK_RECORD
  5
C3A
100
AcDbSymbolTableRecord
100
AcDbBlockTableRecord
  2
ELE-560-3D_7
  0
BLOCK_RECORD
  5
C57
100
AcDbSymbolTableRecord
100
AcDbBlockTableRecord
  2
VE202
  0
BLOCK_RECORD
  5
C9F
100
AcDbSymbolTableRecord
100
AcDbBlockTableRecord
  2
ELE-560-3D_8
  0
BLOCK_RECORD
  5
CB2
100
AcDbSymbolTableRecord
100
AcDbBlockTableRecord
  2
VE203
  0
BLOCK_RECORD
  5
CE2
100
AcDbSymbolTableRecord
100
AcDbBlockTableRecord
  2
ELE-560-3D_9
  0
BLOCK_RECORD
  5
CFF
100
AcDbSymbolTableRecord
100
AcDbBlockTableRecord
  2
AVE_RENDER
  0
BLOCK_RECORD
  5
D0D
100
AcDbSymbolTableRecord
100
AcDbBlockTableRecord
  2
AVE_GLOBAL
  0
BLOCK_RECORD
  5
DF7
100
AcDbSymbolTableRecord
100
AcDbBlockTableRecord
  2
A
  0
ENDTAB
  0
ENDSEC
  0
SECTION
  2
BLOCKS
  0
BLOCK
  5
83D
100
AcDbEntity
  8
0
 62
     1
100
AcDbBlockBegin
  2
*MODEL_SPACE
 70
     0
 10
0.0
 20
0.0
 30
0.0
  3
*MODEL_SPACE
  1

  0
ENDBLK
  5
83E
100
AcDbEntity
  8
0
 62
     1
100
AcDbBlockEnd
  0
BLOCK
  5
83B
100
AcDbEntity
 67
     1
  8
0
 62
     1
100
AcDbBlockBegin
  2
*PAPER_SPACE
 70
     0
 10
0.0
 20
0.0
 30
0.0
  3
*PAPER_SPACE
  1

  0
ENDBLK
  5
83C
100
AcDbEntity
 67
     1
  8
0
 62
     1
100
AcDbBlockEnd
  0
BLOCK
  5
25
100
AcDbEntity
  8
0
100
AcDbBlockBegin
  2
_OBLIQUE
 70
     0
 10
0.0
 20
0.0
 30
0.0
  3
_OBLIQUE
  1

  0
LINE
  5
26
100
AcDbEntity
  8
0
  6
BYBLOCK
 62
     0
100
AcDbLine
 10
-0.5
 20
-0.5
 30
0.0
 11
0.5
 21
0.5
 31
0.0
  0
ENDBLK
  5
27
100
AcDbEntity
  8
0
100
AcDbBlockEnd
  0
BLOCK
  5
87A
100
AcDbEntity
  8
0
100
AcDbBlockBegin
  2
*X1
 70
     1
 10
0.0
 20
0.0
 30
0.0
  3
*X1
  1

  0
LINE
  5
867
100
AcDbEntity
  8
0
  6
CONTINUOUS
 62
     0
100
AcDbLine
 10
-0.455828
 20
1.956643
 30
3.695506
 11
0.455828
 21
1.956643
 31
3.394703
210
-0.0000000000000035
220
-1.0
230
0.0000000000000229
  0
LINE
  5
868
100
AcDbEntity
  8
0
  6
CONTINUOUS
 62
     0
100
AcDbLine
 10
-0.469015
 20
1.956643
 30
3.647206
 11
0.437682
 21
1.956643
 31
3.348039
210
-0.0000000000000035
220
-1.0
230
0.0000000000000229
  0
LINE
  5
869
100
AcDbEntity
  8
0
  6
CONTINUOUS
 62
     0
100
AcDbLine
 10
-0.47716
 20
1.956643
 30
3.597242
 11
0.414493
 21
1.956643
 31
3.303039
210
-0.0000000000000035
220
-1.0
230
0.0000000000000229
  0
LINE
  5
86A
100
AcDbEntity
  8
0
  6
CONTINUOUS
 62
     0
100
AcDbLine
 10
-0.48
 20
1.956643
 30
3.545527
 11
0.385999
 21
1.956643
 31
3.259789
210
-0.0000000000000035
220
-1.0
230
0.0000000000000229
  0
LINE
  5
86B
100
AcDbEntity
  8
0
  6
CONTINUOUS
 62
     0
100
AcDbLine
 10
-0.477042
 20
1.956643
 30
3.4919
 11
0.351708
 21
1.956643
 31
3.218452
210
-0.0000000000000035
220
-1.0
230
0.0000000000000229
  0
LINE
  5
86C
100
AcDbEntity
  8
0
  6
CONTINUOUS
 62
     0
100
AcDbLine
 10
-0.467456
 20
1.956643
 30
3.436085
 11
0.310788
 21
1.956643
 31
3.179303
210
-0.0000000000000035
220
-1.0
230
0.0000000000000229
  0
LINE
  5
86D
100
AcDbEntity
  8
0
  6
CONTINUOUS
 62
     0
100
AcDbLine
 10
-0.449832
 20
1.956643
 30
3.377619
 11
0.26183
 21
1.956643
 31
3.142805
210
-0.0000000000000035
220
-1.0
230
0.0000000000000229
  0
LINE
  5
86E
100
AcDbEntity
  8
0
  6
CONTINUOUS
 62
     0
100
AcDbLine
 10
-0.421607
 20
1.956643
 30
3.315655
 11
0.202272
 21
1.956643
 31
3.109805
210
-0.0000000000000035
220
-1.0
230
0.0000000000000229
  0
LINE
  5
86F
100
AcDbEntity
  8
0
  6
CONTINUOUS
 62
     0
100
AcDbLine
 10
-0.377303
 20
1.956643
 30
3.248385
 11
0.126634
 21
1.956643
 31
3.08211
210
-0.0000000000000035
220
-1.0
230
0.0000000000000229
  0
LINE
  5
870
100
AcDbEntity
  8
0
  6
CONTINUOUS
 62
     0
100
AcDbLine
 10
-0.299623
 20
1.956643
 30
3.170103
 11
0.01762
 21
1.956643
 31
3.065428
210
-0.0000000000000035
220
-1.0
230
0.0000000000000229
  0
LINE
  5
871
100
AcDbEntity
  8
0
  6
CONTINUOUS
 62
     0
100
AcDbLine
 10
-0.437682
 20
1.956643
 30
3.74217
 11
0.469015
 21
1.956643
 31
3.443003
210
-0.0000000000000035
220
-1.0
230
0.0000000000000229
  0
LINE
  5
872
100
AcDbEntity
  8
0
  6
CONTINUOUS
 62
     0
100
AcDbLine
 10
-0.414493
 20
1.956643
 30
3.78717
 11
0.47716
 21
1.956643
 31
3.492967
210
-0.0000000000000035
220
-1.0
230
0.0000000000000229
  0
LINE
  5
873
100
AcDbEntity
  8
0
  6
CONTINUOUS
 62
     0
100
AcDbLine
 10
-0.385999
 20
1.956643
 30
3.83042
 11
0.48
 21
1.956643
 31
3.544682
210
-0.0000000000000035
220
-1.0
230
0.0000000000000229
  0
LINE
  5
874
100
AcDbEntity
  8
0
  6
CONTINUOUS
 62
     0
100
AcDbLine
 10
-0.351708
 20
1.956643
 30
3.871757
 11
0.477042
 21
1.956643
 31
3.598309
210
-0.0000000000000035
220
-1.0
230
0.0000000000000229
  0
LINE
  5
875
100
AcDbEntity
  8
0
  6
CONTINUOUS
 62
     0
100
AcDbLine
 10
-0.310788
 20
1.956643
 30
3.910906
 11
0.467456
 21
1.956643
 31
3.654124
210
-0.0000000000000035
220
-1.0
230
0.0000000000000229
  0
LINE
  5
876
100
AcDbEntity
  8
0
  6
CONTINUOUS
 62
     0
100
AcDbLine
 10
-0.26183
 20
1.956643
 30
3.947404
 11
0.449832
 21
1.956643
 31
3.71259
210
-0.0000000000000035
220
-1.0
230
0.0000000000000229
  0
LINE
  5
877
100
AcDbEntity
  8
0
  6
CONTINUOUS
 62
     0
100
AcDbLine
 10
-0.202272
 20
1.956643
 30
3.980404
 11
0.421607
 21
1.956643
 31
3.774554
210
-0.0000000000000035
220
-1.0
230
0.0000000000000229
  0
LINE
  5
878
100
AcDbEntity
  8
0
  6
CONTINUOUS
 62
     0
100
AcDbLine
 10
-0.126634
 20
1.956643
 30
4.008099
 11
0.377303
 21
1.956643
 31
3.841824
210
-0.0000000000000035
220
-1.0
230
0.0000000000000229
  0
LINE
  5
879
100
AcDbEntity
  8
0
  6
CONTINUOUS
 62
     0
100
AcDbLine
 10
-0.01762
 20
1.956643
 30
4.024781
 11
0.299623
 21
1.956643
 31
3.920106
210
-0.0000000000000035
220
-1.0
230
0.0000000000000229
  0
ENDBLK
  5
87B
100
AcDbEntity
  8
0
100
AcDbBlockEnd
  0
BLOCK
  5
8AC
100
AcDbEntity
  8
0
100
AcDbBlockBegin
  2
SMERA
 70
     0
 10
0.0
 20
0.0
 30
0.0
  3
SMERA
  1

  0
POLYLINE
  5
87D
100
AcDbEntity
  8
0
  6
CONTINUOUS
 62
     2
100
AcDbPolygonMesh
 66
     1
 10
0.0
 20
0.0
 30
0.0
 70
    17
 71
     6
 72
     7
  0
VERTEX
  5
87E
100
AcDbEntity
  8
0
  6
CONTINUOUS
 62
     2
100
AcDbVertex
100
AcDbPolygonMeshVertex
 10
0.505343
 20
0.0
 30
1.992337
 70
    64
  0
VERTEX
  5
87F
100
AcDbEntity
  8
0
  6
CONTINUOUS
 62
     2
100
AcDbVertex
100
AcDbPolygonMeshVertex
 10
0.421119
 20
0.0
 30
2.449644
 70
    64
  0
VERTEX
  5
880
100
AcDbEntity
  8
0
  6
CONTINUOUS
 62
     2
100
AcDbVertex
100
AcDbPolygonMeshVertex
 10
0.336896
 20
0.0
 30
2.90695
 70
    64
  0
VERTEX
  5
881
100
AcDbEntity
  8
0
  6
CONTINUOUS
 62
     2
100
AcDbVertex
100
AcDbPolygonMeshVertex
 10
0.252672
 20
0.0
 30
3.364257
 70
    64
  0
VERTEX
  5
882
100
AcDbEntity
  8
0
  6
CONTINUOUS
 62
     2
100
AcDbVertex
100
AcDbPolygonMeshVertex
 10
0.168448
 20
0.0
 30
3.821564
 70
    64
  0
VERTEX
  5
883
100
AcDbEntity
  8
0
  6
CONTINUOUS
 62
     2
100
AcDbVertex
100
AcDbPolygonMeshVertex
 10
0.084224
 20
0.0
 30
4.278871
 70
    64
  0
VERTEX
  5
884
100
AcDbEntity
  8
0
  6
CONTINUOUS
 62
     2
100
AcDbVertex
100
AcDbPolygonMeshVertex
 10
0.0
 20
0.0
 30
4.736178
 70
    64
  0
VERTEX
  5
885
100
AcDbEntity
  8
0
  6
CONTINUOUS
 62
     2
100
AcDbVertex
100
AcDbPolygonMeshVertex
 10
0.252672
 20
-0.43764
 30
1.992337
 70
    64
  0
VERTEX
  5
886
100
AcDbEntity
  8
0
  6
CONTINUOUS
 62
     2
100
AcDbVertex
100
AcDbPolygonMeshVertex
 10
0.21056
 20
-0.3647
 30
2.449644
 70
    64
  0
VERTEX
  5
887
100
AcDbEntity
  8
0
  6
CONTINUOUS
 62
     2
100
AcDbVertex
100
AcDbPolygonMeshVertex
 10
0.168448
 20
-0.29176
 30
2.90695
 70
    64
  0
VERTEX
  5
888
100
AcDbEntity
  8
0
  6
CONTINUOUS
 62
     2
100
AcDbVertex
100
AcDbPolygonMeshVertex
 10
0.126336
 20
-0.21882
 30
3.364257
 70
    64
  0
VERTEX
  5
889
100
AcDbEntity
  8
0
  6
CONTINUOUS
 62
     2
100
AcDbVertex
100
AcDbPolygonMeshVertex
 10
0.084224
 20
-0.14588
 30
3.821564
 70
    64
  0
VERTEX
  5
88A
100
AcDbEntity
  8
0
  6
CONTINUOUS
 62
     2
100
AcDbVertex
100
AcDbPolygonMeshVertex
 10
0.042112
 20
-0.07294
 30
4.278871
 70
    64
  0
VERTEX
  5
88B
100
AcDbEntity
  8
0
  6
CONTINUOUS
 62
     2
100
AcDbVertex
100
AcDbPolygonMeshVertex
 10
0.0
 20
0.0
 30
4.736178
 70
    64
  0
VERTEX
  5
88C
100
AcDbEntity
  8
0
  6
CONTINUOUS
 62
     2
100
AcDbVertex
100
AcDbPolygonMeshVertex
 10
-0.252672
 20
-0.43764
 30
1.992337
 70
    64
  0
VERTEX
  5
88D
100
AcDbEntity
  8
0
  6
CONTINUOUS
 62
     2
100
AcDbVertex
100
AcDbPolygonMeshVertex
 10
-0.21056
 20
-0.3647
 30
2.449644
 70
    64
  0
VERTEX
  5
88E
100
AcDbEntity
  8
0
  6
CONTINUOUS
 62
     2
100
AcDbVertex
100
AcDbPolygonMeshVertex
 10
-0.168448
 20
-0.29176
 30
2.90695
 70
    64
  0
VERTEX
  5
88F
100
AcDbEntity
  8
0
  6
CONTINUOUS
 62
     2
100
AcDbVertex
100
AcDbPolygonMeshVertex
 10
-0.126336
 20
-0.21882
 30
3.364257
 70
    64
  0
VERTEX
  5
890
100
AcDbEntity
  8
0
  6
CONTINUOUS
 62
     2
100
AcDbVertex
100
AcDbPolygonMeshVertex
 10
-0.084224
 20
-0.14588
 30
3.821564
 70
    64
  0
VERTEX
  5
891
100
AcDbEntity
  8
0
  6
CONTINUOUS
 62
     2
100
AcDbVertex
100
AcDbPolygonMeshVertex
 10
-0.042112
 20
-0.07294
 30
4.278871
 70
    64
  0
VERTEX
  5
892
100
AcDbEntity
  8
0
  6
CONTINUOUS
 62
     2
100
AcDbVertex
100
AcDbPolygonMeshVertex
 10
0.0
 20
0.0
 30
4.736178
 70
    64
  0
VERTEX
  5
893
100
AcDbEntity
  8
0
  6
CONTINUOUS
 62
     2
100
AcDbVertex
100
AcDbPolygonMeshVertex
 10
-0.505343
 20
0.0
 30
1.992337
 70
    64
  0
VERTEX
  5
894
100
AcDbEntity
  8
0
  6
CONTINUOUS
 62
     2
100
AcDbVertex
100
AcDbPolygonMeshVertex
 10
-0.421119
 20
0.0
 30
2.449644
 70
    64
  0
VERTEX
  5
895
100
AcDbEntity
  8
0
  6
CONTINUOUS
 62
     2
100
AcDbVertex
100
AcDbPolygonMeshVertex
 10
-0.336896
 20
0.0
 30
2.90695
 70
    64
  0
VERTEX
  5
896
100
AcDbEntity
  8
0
  6
CONTINUOUS
 62
     2
100
AcDbVertex
100
AcDbPolygonMeshVertex
 10
-0.252672
 20
0.0
 30
3.364257
 70
    64
  0
VERTEX
  5
897
100
AcDbEntity
  8
0
  6
CONTINUOUS
 62
     2
100
AcDbVertex
100
AcDbPolygonMeshVertex
 10
-0.168448
 20
0.0
 30
3.821564
 70
    64
  0
VERTEX
  5
898
100
AcDbEntity
  8
0
  6
CONTINUOUS
 62
     2
100
AcDbVertex
100
AcDbPolygonMeshVertex
 10
-0.084224
 20
0.0
 30
4.278871
 70
    64
  0
VERTEX
  5
899
100
AcDbEntity
  8
0
  6
CONTINUOUS
 62
     2
100
AcDbVertex
100
AcDbPolygonMeshVertex
 10
0.0
 20
0.0
 30
4.736178
 70
    64
  0
VERTEX
  5
89A
100
AcDbEntity
  8
0
  6
CONTINUOUS
 62
     2
100
AcDbVertex
100
AcDbPolygonMeshVertex
 10
-0.252672
 20
0.43764
 30
1.992337
 70
    64
  0
VERTEX
  5
89B
100
AcDbEntity
  8
0
  6
CONTINUOUS
 62
     2
100
AcDbVertex
100
AcDbPolygonMeshVertex
 10
-0.21056
 20
0.3647
 30
2.449644
 70
    64
  0
VERTEX
  5
89C
100
AcDbEntity
  8
0
  6
CONTINUOUS
 62
     2
100
AcDbVertex
100
AcDbPolygonMeshVertex
 10
-0.168448
 20
0.29176
 30
2.90695
 70
    64
  0
VERTEX
  5
89D
100
AcDbEntity
  8
0
  6
CONTINUOUS
 62
     2
100
AcDbVertex
100
AcDbPolygonMeshVertex
 10
-0.126336
 20
0.21882
 30
3.364257
 70
    64
  0
VERTEX
  5
89E
100
AcDbEntity
  8
0
  6
CONTINUOUS
 62
     2
100
AcDbVertex
100
AcDbPolygonMeshVertex
 10
-0.084224
 20
0.14588
 30
3.821564
 70
    64
  0
VERTEX
  5
89F
100
AcDbEntity
  8
0
  6
CONTINUOUS
 62
     2
100
AcDbVertex
100
AcDbPolygonMeshVertex
 10
-0.042112
 20
0.07294
 30
4.278871
 70
    64
  0
VERTEX
  5
8A0
100
AcDbEntity
  8
0
  6
CONTINUOUS
 62
     2
100
AcDbVertex
100
AcDbPolygonMeshVertex
 10
0.0
 20
0.0
 30
4.736178
 70
    64
  0
VERTEX
  5
8A1
100
AcDbEntity
  8
0
  6
CONTINUOUS
 62
     2
100
AcDbVertex
100
AcDbPolygonMeshVertex
 10
0.252672
 20
0.43764
 30
1.992337
 70
    64
  0
VERTEX
  5
8A2
100
AcDbEntity
  8
0
  6
CONTINUOUS
 62
     2
100
AcDbVertex
100
AcDbPolygonMeshVertex
 10
0.21056
 20
0.3647
 30
2.449644
 70
    64
  0
VERTEX
  5
8A3
100
AcDbEntity
  8
0
  6
CONTINUOUS
 62
     2
100
AcDbVertex
100
AcDbPolygonMeshVertex
 10
0.168448
 20
0.29176
 30
2.90695
 70
    64
  0
VERTEX
  5
8A4
100
AcDbEntity
  8
0
  6
CONTINUOUS
 62
     2
100
AcDbVertex
100
AcDbPolygonMeshVertex
 10
0.126336
 20
0.21882
 30
3.364257
 70
    64
  0
VERTEX
  5
8A5
100
AcDbEntity
  8
0
  6
CONTINUOUS
 62
     2
100
AcDbVertex
100
AcDbPolygonMeshVertex
 10
0.084224
 20
0.14588
 30
3.821564
 70
    64
  0
VERTEX
  5
8A6
100
AcDbEntity
  8
0
  6
CONTINUOUS
 62
     2
100
AcDbVertex
100
AcDbPolygonMeshVertex
 10
0.042112
 20
0.07294
 30
4.278871
 70
    64
  0
VERTEX
  5
8A7
100
AcDbEntity
  8
0
  6
CONTINUOUS
 62
     2
100
AcDbVertex
100
AcDbPolygonMeshVertex
 10
0.0
 20
0.0
 30
4.736178
 70
    64
  0
SEQEND
  5
8A8
100
AcDbEntity
  8
0
  6
CONTINUOUS
 62
     2
  0
CIRCLE
  5
8A9
100
AcDbEntity
  8
0
  6
CONTINUOUS
 62
     5
100
AcDbCircle
 10
0.0
 20
0.0
 30
2.000272
 40
0.528
  0
INSERT
  5
8AA
100
AcDbEntity
  8
0
  6
CONTINUOUS
 62
     5
100
AcDbBlockReference
  2
*X1
 10
0.0
 20
4.048296
 30
-3.899615
 41
1.1
 42
1.1
 43
1.1
 50
180.0
210
-1.0
220
0.0
230
0.0
1001
ACAD
1000
HATCH
1002
{
1070
    16
1000
ANSI31
1040
0.4
1040
2.03749
1002
}
  0
LINE
  5
8AB
100
AcDbEntity
  8
0
  6
CONTINUOUS
 62
     2
100
AcDbLine
 10
0.0
 20
0.0
 30
0.0
 11
0.0
 21
0.0
 31
4.736178
210
0.0
220
1.0
230
0.0
  0
ENDBLK
  5
8AD
100
AcDbEntity
  8
0
100
AcDbBlockEnd
  0
BLOCK
  5
8B5
100
AcDbEntity
  8
0
 62
     2
100
AcDbBlockBegin
  2
ZNVE
 70
     0
 10
0.0
 20
0.0
 30
0.0
  3
ZNVE
  1

  0
CIRCLE
  5
8B1
100
AcDbEntity
  8
0
  6
CONTINUOUS
 62
     7
100
AcDbCircle
 10
0.0
 20
0.0
 30
0.0
 40
0.5
  0
LINE
  5
8B2
100
AcDbEntity
  8
0
  6
CONTINUOUS
 62
     7
100
AcDbLine
 10
0.5
 20
0.0
 30
0.0
 11
-0.25
 21
0.433013
 31
0.0
  0
LINE
  5
8B3
100
AcDbEntity
  8
0
  6
CONTINUOUS
 62
     7
100
AcDbLine
 10
0.5
 20
0.0
 30
0.0
 11
-0.25
 21
-0.433013
 31
0.0
  0
LINE
  5
8B4
100
AcDbEntity
  8
0
  6
CONTINUOUS
 62
     7
100
AcDbLine
 10
-0.25
 20
0.433013
 30
0.0
 11
-0.25
 21
-0.433013
 31
0.0
  0
ENDBLK
  5
8B6
100
AcDbEntity
  8
0
 62
     2
100
AcDbBlockEnd
  0
BLOCK
  5
8C0
100
AcDbEntity
  8
0
100
AcDbBlockBegin
  2
ELE123V103_0
 70
     2
 10
0.0
 20
0.0
 30
0.0
  3
ELE123V103_0
  1

  0
CIRCLE
  5
8C1
100
AcDbEntity
  8
VZ1
  6
CONTINUOUS
 62
     2
100
AcDbCircle
 39
176.0
 10
0.0
 20
0.0
 30
0.0
 40
177.5
  0
INSERT
  5
8C2
100
AcDbEntity
  8
VZ1
  6
CONTINUOUS
 62
     2
100
AcDbBlockReference
  2
ZNVE
 10
0.0
 20
88.0
 30
187.5
 41
140.8
 42
140.8
 43
140.8
 50
270.0
210
1.0
220
0.0
230
-0.0000000000000002
  0
INSERT
  5
8C3
100
AcDbEntity
  8
VZ1
  6
CONTINUOUS
 62
     2
100
AcDbBlockReference
  2
ZNVE
 10
0.0
 20
88.0
 30
187.5
 41
140.8
 42
140.8
 43
140.8
 50
270.0
210
0.0000000000000001
220
1.0
230
-0.0000000000000002
  0
INSERT
  5
8C4
100
AcDbEntity
  8
VZ1
  6
CONTINUOUS
 62
     2
100
AcDbBlockReference
  2
ZNVE
 10
0.0
 20
88.0
 30
187.5
 41
140.8
 42
140.8
 43
140.8
 50
270.0
210
-1.0
220
0.0000000000000001
230
-0.0000000000000002
  0
INSERT
  5
8C5
100
AcDbEntity
  8
VZ1
  6
CONTINUOUS
 62
     2
100
AcDbBlockReference
  2
ZNVE
 10
0.0
 20
88.0
 30
187.5
 41
140.8
 42
140.8
 43
140.8
 50
270.0
210
-0.0000000000000002
220
-1.0
230
-0.0000000000000002
  0
ATTDEF
  5
8C6
100
AcDbEntity
  8
VZ1
  6
CONTINUOUS
 62
     2
100
AcDbText
 10
0.0
 20
0.0
 30
0.0
 40
1.0
  1
3383
 41
0.8
  7
ROMANS
100
AcDbAttributeDefinition
  3

  2
VETA
 70
     1
  0
ATTDEF
  5
8C7
100
AcDbEntity
  8
VZ1
  6
CONTINUOUS
 62
     2
100
AcDbText
 10
0.0
 20
0.0
 30
0.0
 40
1.0
  1

 41
0.8
  7
ROMANS
100
AcDbAttributeDefinition
  3

  2
POS
 70
     1
  0
ATTDEF
  5
8C8
100
AcDbEntity
  8
VZ1
  6
CONTINUOUS
 62
     2
100
AcDbText
 10
0.0
 20
0.0
 30
0.0
 40
1.0
  1
TCFB/4-355 H
 41
0.8
  7
ROMANS
100
AcDbAttributeDefinition
  3

  2
NAZEV
 70
     1
  0
ATTDEF
  5
8C9
100
AcDbEntity
  8
VZ1
  6
CONTINUOUS
 62
     2
100
AcDbText
 10
0.0
 20
0.0
 30
0.0
 40
1.0
  1

 41
0.8
  7
ROMANS
100
AcDbAttributeDefinition
  3

  2
TYP
 70
     1
  0
ENDBLK
  5
8CA
100
AcDbEntity
  8
0
100
AcDbBlockEnd
  0
BLOCK
  5
8DD
100
AcDbEntity
  8
0
100
AcDbBlockBegin
  2
ELE123V103_1
 70
     2
 10
0.0
 20
0.0
 30
0.0
  3
ELE123V103_1
  1

  0
CIRCLE
  5
8DE
100
AcDbEntity
  8
VZ1
  6
CONTINUOUS
 62
     2
100
AcDbCircle
 39
176.0
 10
0.0
 20
0.0
 30
0.0
 40
177.5
  0
INSERT
  5
8DF
100
AcDbEntity
  8
VZ1
  6
CONTINUOUS
 62
     2
100
AcDbBlockReference
  2
ZNVE
 10
0.0
 20
88.0
 30
187.5
 41
140.8
 42
140.8
 43
140.8
 50
270.0
210
1.0
220
0.0
230
-0.0000000000000002
  0
INSERT
  5
8E0
100
AcDbEntity
  8
VZ1
  6
CONTINUOUS
 62
     2
100
AcDbBlockReference
  2
ZNVE
 10
0.0
 20
88.0
 30
187.5
 41
140.8
 42
140.8
 43
140.8
 50
270.0
210
0.0000000000000001
220
1.0
230
-0.0000000000000002
  0
INSERT
  5
8E1
100
AcDbEntity
  8
VZ1
  6
CONTINUOUS
 62
     2
100
AcDbBlockReference
  2
ZNVE
 10
0.0
 20
88.0
 30
187.5
 41
140.8
 42
140.8
 43
140.8
 50
270.0
210
-1.0
220
0.0000000000000001
230
-0.0000000000000002
  0
INSERT
  5
8E2
100
AcDbEntity
  8
VZ1
  6
CONTINUOUS
 62
     2
100
AcDbBlockReference
  2
ZNVE
 10
0.0
 20
88.0
 30
187.5
 41
140.8
 42
140.8
 43
140.8
 50
270.0
210
-0.0000000000000002
220
-1.0
230
-0.0000000000000002
  0
ATTDEF
  5
8E3
100
AcDbEntity
  8
VZ1
  6
CONTINUOUS
 62
     2
100
AcDbText
 10
0.0
 20
0.0
 30
0.0
 40
1.0
  1
3383
 41
0.8
  7
ROMANS
100
AcDbAttributeDefinition
  3

  2
VETA
 70
     1
  0
ATTDEF
  5
8E4
100
AcDbEntity
  8
VZ1
  6
CONTINUOUS
 62
     2
100
AcDbText
 10
0.0
 20
0.0
 30
0.0
 40
1.0
  1

 41
0.8
  7
ROMANS
100
AcDbAttributeDefinition
  3

  2
POS
 70
     1
  0
ATTDEF
  5
8E5
100
AcDbEntity
  8
VZ1
  6
CONTINUOUS
 62
     2
100
AcDbText
 10
0.0
 20
0.0
 30
0.0
 40
1.0
  1
TCFB/4-355 H
 41
0.8
  7
ROMANS
100
AcDbAttributeDefinition
  3

  2
NAZEV
 70
     1
  0
ATTDEF
  5
8E6
100
AcDbEntity
  8
VZ1
  6
CONTINUOUS
 62
     2
100
AcDbText
 10
0.0
 20
0.0
 30
0.0
 40
1.0
  1

 41
0.8
  7
ROMANS
100
AcDbAttributeDefinition
  3

  2
TYP
 70
     1
  0
ENDBLK
  5
8E7
100
AcDbEntity
  8
0
100
AcDbBlockEnd
  0
BLOCK
  5
951
100
AcDbEntity
  8
0
 62
     2
100
AcDbBlockBegin
  2
VE011
 70
     0
 10
0.0
 20
0.0
 30
0.0
  3
VE011
  1

  0
LINE
  5
8FA
100
AcDbEntity
  8
0
  6
CONTINUOUS
 62
     7
100
AcDbLine
 10
0.0
 20
0.0
 30
0.0
 11
0.0
 21
0.0
 31
1.0
  0
POLYLINE
  5
8FB
100
AcDbEntity
  8
0
  6
CONTINUOUS
 62
     7
100
AcDbPolygonMesh
 66
     1
 10
0.0
 20
0.0
 30
0.0
 70
    48
 71
     2
 72
     8
  0
VERTEX
  5
8FC
100
AcDbEntity
  8
0
  6
CONTINUOUS
 62
     7
100
AcDbVertex
100
AcDbPolygonMeshVertex
 10
0.5
 20
0.0
 30
0.0
 70
    64
  0
VERTEX
  5
8FD
100
AcDbEntity
  8
0
  6
CONTINUOUS
 62
     7
100
AcDbVertex
100
AcDbPolygonMeshVertex
 10
0.353553
 20
0.353553
 30
0.0
 70
    64
  0
VERTEX
  5
8FE
100
AcDbEntity
  8
0
  6
CONTINUOUS
 62
     7
100
AcDbVertex
100
AcDbPolygonMeshVertex
 10
0.0
 20
0.5
 30
0.0
 70
    64
  0
VERTEX
  5
8FF
100
AcDbEntity
  8
0
  6
CONTINUOUS
 62
     7
100
AcDbVertex
100
AcDbPolygonMeshVertex
 10
-0.353553
 20
0.353553
 30
0.0
 70
    64
  0
VERTEX
  5
900
100
AcDbEntity
  8
0
  6
CONTINUOUS
 62
     7
100
AcDbVertex
100
AcDbPolygonMeshVertex
 10
-0.5
 20
0.0
 30
0.0
 70
    64
  0
VERTEX
  5
901
100
AcDbEntity
  8
0
  6
CONTINUOUS
 62
     7
100
AcDbVertex
100
AcDbPolygonMeshVertex
 10
-0.353553
 20
-0.353553
 30
0.0
 70
    64
  0
VERTEX
  5
902
100
AcDbEntity
  8
0
  6
CONTINUOUS
 62
     7
100
AcDbVertex
100
AcDbPolygonMeshVertex
 10
0.0
 20
-0.5
 30
0.0
 70
    64
  0
VERTEX
  5
903
100
AcDbEntity
  8
0
  6
CONTINUOUS
 62
     7
100
AcDbVertex
100
AcDbPolygonMeshVertex
 10
0.353553
 20
-0.353553
 30
0.0
 70
    64
  0
VERTEX
  5
904
100
AcDbEntity
  8
0
  6
CONTINUOUS
 62
     7
100
AcDbVertex
100
AcDbPolygonMeshVertex
 10
0.7
 20
0.0
 30
0.22
 70
    64
  0
VERTEX
  5
905
100
AcDbEntity
  8
0
  6
CONTINUOUS
 62
     7
100
AcDbVertex
100
AcDbPolygonMeshVertex
 10
0.494975
 20
0.494975
 30
0.22
 70
    64
  0
VERTEX
  5
906
100
AcDbEntity
  8
0
  6
CONTINUOUS
 62
     7
100
AcDbVertex
100
AcDbPolygonMeshVertex
 10
0.0
 20
0.7
 30
0.22
 70
    64
  0
VERTEX
  5
907
100
AcDbEntity
  8
0
  6
CONTINUOUS
 62
     7
100
AcDbVertex
100
AcDbPolygonMeshVertex
 10
-0.494975
 20
0.494975
 30
0.22
 70
    64
  0
VERTEX
  5
908
100
AcDbEntity
  8
0
  6
CONTINUOUS
 62
     7
100
AcDbVertex
100
AcDbPolygonMeshVertex
 10
-0.7
 20
0.0
 30
0.22
 70
    64
  0
VERTEX
  5
909
100
AcDbEntity
  8
0
  6
CONTINUOUS
 62
     7
100
AcDbVertex
100
AcDbPolygonMeshVertex
 10
-0.494975
 20
-0.494975
 30
0.22
 70
    64
  0
VERTEX
  5
90A
100
AcDbEntity
  8
0
  6
CONTINUOUS
 62
     7
100
AcDbVertex
100
AcDbPolygonMeshVertex
 10
0.0
 20
-0.7
 30
0.22
 70
    64
  0
VERTEX
  5
90B
100
AcDbEntity
  8
0
  6
CONTINUOUS
 62
     7
100
AcDbVertex
100
AcDbPolygonMeshVertex
 10
0.494975
 20
-0.494975
 30
0.22
 70
    64
  0
SEQEND
  5
90C
100
AcDbEntity
  8
0
  6
CONTINUOUS
 62
     7
  0
POLYLINE
  5
90D
100
AcDbEntity
  8
0
  6
CONTINUOUS
 62
     7
100
AcDbPolygonMesh
 66
     1
 10
0.0
 20
0.0
 30
0.0
 70
    48
 71
     2
 72
     8
  0
VERTEX
  5
90E
100
AcDbEntity
  8
0
  6
CONTINUOUS
 62
     7
100
AcDbVertex
100
AcDbPolygonMeshVertex
 10
0.7
 20
0.0
 30
0.22
 70
    64
  0
VERTEX
  5
90F
100
AcDbEntity
  8
0
  6
CONTINUOUS
 62
     7
100
AcDbVertex
100
AcDbPolygonMeshVertex
 10
0.494975
 20
0.494975
 30
0.22
 70
    64
  0
VERTEX
  5
910
100
AcDbEntity
  8
0
  6
CONTINUOUS
 62
     7
100
AcDbVertex
100
AcDbPolygonMeshVertex
 10
0.0
 20
0.7
 30
0.22
 70
    64
  0
VERTEX
  5
911
100
AcDbEntity
  8
0
  6
CONTINUOUS
 62
     7
100
AcDbVertex
100
AcDbPolygonMeshVertex
 10
-0.494975
 20
0.494975
 30
0.22
 70
    64
  0
VERTEX
  5
912
100
AcDbEntity
  8
0
  6
CONTINUOUS
 62
     7
100
AcDbVertex
100
AcDbPolygonMeshVertex
 10
-0.7
 20
0.0
 30
0.22
 70
    64
  0
VERTEX
  5
913
100
AcDbEntity
  8
0
  6
CONTINUOUS
 62
     7
100
AcDbVertex
100
AcDbPolygonMeshVertex
 10
-0.494975
 20
-0.494975
 30
0.22
 70
    64
  0
VERTEX
  5
914
100
AcDbEntity
  8
0
  6
CONTINUOUS
 62
     7
100
AcDbVertex
100
AcDbPolygonMeshVertex
 10
0.0
 20
-0.7
 30
0.22
 70
    64
  0
VERTEX
  5
915
100
AcDbEntity
  8
0
  6
CONTINUOUS
 62
     7
100
AcDbVertex
100
AcDbPolygonMeshVertex
 10
0.494975
 20
-0.494975
 30
0.22
 70
    64
  0
VERTEX
  5
916
100
AcDbEntity
  8
0
  6
CONTINUOUS
 62
     7
100
AcDbVertex
100
AcDbPolygonMeshVertex
 10
0.7
 20
0.0
 30
0.44
 70
    64
  0
VERTEX
  5
917
100
AcDbEntity
  8
0
  6
CONTINUOUS
 62
     7
100
AcDbVertex
100
AcDbPolygonMeshVertex
 10
0.494975
 20
0.494975
 30
0.44
 70
    64
  0
VERTEX
  5
918
100
AcDbEntity
  8
0
  6
CONTINUOUS
 62
     7
100
AcDbVertex
100
AcDbPolygonMeshVertex
 10
0.0
 20
0.7
 30
0.44
 70
    64
  0
VERTEX
  5
919
100
AcDbEntity
  8
0
  6
CONTINUOUS
 62
     7
100
AcDbVertex
100
AcDbPolygonMeshVertex
 10
-0.494975
 20
0.494975
 30
0.44
 70
    64
  0
VERTEX
  5
91A
100
AcDbEntity
  8
0
  6
CONTINUOUS
 62
     7
100
AcDbVertex
100
AcDbPolygonMeshVertex
 10
-0.7
 20
0.0
 30
0.44
 70
    64
  0
VERTEX
  5
91B
100
AcDbEntity
  8
0
  6
CONTINUOUS
 62
     7
100
AcDbVertex
100
AcDbPolygonMeshVertex
 10
-0.494975
 20
-0.494975
 30
0.44
 70
    64
  0
VERTEX
  5
91C
100
AcDbEntity
  8
0
  6
CONTINUOUS
 62
     7
100
AcDbVertex
100
AcDbPolygonMeshVertex
 10
0.0
 20
-0.7
 30
0.44
 70
    64
  0
VERTEX
  5
91D
100
AcDbEntity
  8
0
  6
CONTINUOUS
 62
     7
100
AcDbVertex
100
AcDbPolygonMeshVertex
 10
0.494975
 20
-0.494975
 30
0.44
 70
    64
  0
SEQEND
  5
91E
100
AcDbEntity
  8
0
  6
CONTINUOUS
 62
     7
  0
POLYLINE
  5
91F
100
AcDbEntity
  8
0
  6
CONTINUOUS
 62
     7
100
AcDbPolygonMesh
 66
     1
 10
0.0
 20
0.0
 30
0.0
 70
    48
 71
     2
 72
     8
  0
VERTEX
  5
920
100
AcDbEntity
  8
0
  6
CONTINUOUS
 62
     7
100
AcDbVertex
100
AcDbPolygonMeshVertex
 10
0.7
 20
0.0
 30
0.44
 70
    64
  0
VERTEX
  5
921
100
AcDbEntity
  8
0
  6
CONTINUOUS
 62
     7
100
AcDbVertex
100
AcDbPolygonMeshVertex
 10
0.494975
 20
0.494975
 30
0.44
 70
    64
  0
VERTEX
  5
922
100
AcDbEntity
  8
0
  6
CONTINUOUS
 62
     7
100
AcDbVertex
100
AcDbPolygonMeshVertex
 10
0.0
 20
0.7
 30
0.44
 70
    64
  0
VERTEX
  5
923
100
AcDbEntity
  8
0
  6
CONTINUOUS
 62
     7
100
AcDbVertex
100
AcDbPolygonMeshVertex
 10
-0.494975
 20
0.494975
 30
0.44
 70
    64
  0
VERTEX
  5
924
100
AcDbEntity
  8
0
  6
CONTINUOUS
 62
     7
100
AcDbVertex
100
AcDbPolygonMeshVertex
 10
-0.7
 20
0.0
 30
0.44
 70
    64
  0
VERTEX
  5
925
100
AcDbEntity
  8
0
  6
CONTINUOUS
 62
     7
100
AcDbVertex
100
AcDbPolygonMeshVertex
 10
-0.494975
 20
-0.494975
 30
0.44
 70
    64
  0
VERTEX
  5
926
100
AcDbEntity
  8
0
  6
CONTINUOUS
 62
     7
100
AcDbVertex
100
AcDbPolygonMeshVertex
 10
0.0
 20
-0.7
 30
0.44
 70
    64
  0
VERTEX
  5
927
100
AcDbEntity
  8
0
  6
CONTINUOUS
 62
     7
100
AcDbVertex
100
AcDbPolygonMeshVertex
 10
0.494975
 20
-0.494975
 30
0.44
 70
    64
  0
VERTEX
  5
928
100
AcDbEntity
  8
0
  6
CONTINUOUS
 62
     7
100
AcDbVertex
100
AcDbPolygonMeshVertex
 10
0.5
 20
0.0
 30
1.0
 70
    64
  0
VERTEX
  5
929
100
AcDbEntity
  8
0
  6
CONTINUOUS
 62
     7
100
AcDbVertex
100
AcDbPolygonMeshVertex
 10
0.353553
 20
0.353553
 30
1.0
 70
    64
  0
VERTEX
  5
92A
100
AcDbEntity
  8
0
  6
CONTINUOUS
 62
     7
100
AcDbVertex
100
AcDbPolygonMeshVertex
 10
0.0
 20
0.5
 30
1.0
 70
    64
  0
VERTEX
  5
92B
100
AcDbEntity
  8
0
  6
CONTINUOUS
 62
     7
100
AcDbVertex
100
AcDbPolygonMeshVertex
 10
-0.353553
 20
0.353553
 30
1.0
 70
    64
  0
VERTEX
  5
92C
100
AcDbEntity
  8
0
  6
CONTINUOUS
 62
     7
100
AcDbVertex
100
AcDbPolygonMeshVertex
 10
-0.5
 20
0.0
 30
1.0
 70
    64
  0
VERTEX
  5
92D
100
AcDbEntity
  8
0
  6
CONTINUOUS
 62
     7
100
AcDbVertex
100
AcDbPolygonMeshVertex
 10
-0.353553
 20
-0.353553
 30
1.0
 70
    64
  0
VERTEX
  5
92E
100
AcDbEntity
  8
0
  6
CONTINUOUS
 62
     7
100
AcDbVertex
100
AcDbPolygonMeshVertex
 10
0.0
 20
-0.5
 30
1.0
 70
    64
  0
VERTEX
  5
92F
100
AcDbEntity
  8
0
  6
CONTINUOUS
 62
     7
100
AcDbVertex
100
AcDbPolygonMeshVertex
 10
0.353553
 20
-0.353553
 30
1.0
 70
    64
  0
SEQEND
  5
930
100
AcDbEntity
  8
0
  6
CONTINUOUS
 62
     7
  0
LINE
  5
931
100
AcDbEntity
  8
0
  6
CONTINUOUS
 62
     7
100
AcDbLine
 10
0.518451
 20
0.0
 30
0.974266
 11
0.645223
 21
-0.221703
 31
0.611796
210
0.9439341089019071
220
0.0
230
0.3301339092725288
  0
CIRCLE
  5
932
100
AcDbEntity
  8
0
  6
CONTINUOUS
 62
     7
100
AcDbCircle
 10
0.0
 20
0.492485
 30
0.811022
 40
0.256
210
0.9439341089019071
220
0.0
230
0.3301339092725288
  0
LINE
  5
933
100
AcDbEntity
  8
0
  6
CONTINUOUS
 62
     7
100
AcDbLine
 10
0.518451
 20
0.0
 30
0.974266
 11
0.645223
 21
0.221703
 31
0.611796
210
0.9439341089019071
220
0.0
230
0.3301339092725288
  0
LINE
  5
934
100
AcDbEntity
  8
0
  6
CONTINUOUS
 62
     7
100
AcDbLine
 10
0.645223
 20
-0.221703
 30
0.611796
 11
0.645223
 21
0.221703
 31
0.611796
210
0.9439341089019071
220
0.0
230
0.3301339092725288
  0
CIRCLE
  5
935
100
AcDbEntity
  8
0
  6
CONTINUOUS
100
AcDbCircle
 10
0.0
 20
0.0
 30
1.0
 40
0.5
  0
CIRCLE
  5
936
100
AcDbEntity
  8
0
  6
CONTINUOUS
100
AcDbCircle
 10
0.0
 20
0.0
 30
0.0
 40
0.5
  0
LINE
  5
937
100
AcDbEntity
  8
0
  6
CONTINUOUS
100
AcDbLine
 10
0.0
 20
0.5
 30
0.0
 11
0.0
 21
0.7
 31
0.22
  0
LINE
  5
938
100
AcDbEntity
  8
0
  6
CONTINUOUS
100
AcDbLine
 10
0.0
 20
0.7
 30
0.22
 11
0.0
 21
0.7
 31
0.44
  0
LINE
  5
939
100
AcDbEntity
  8
0
  6
CONTINUOUS
100
AcDbLine
 10
0.0
 20
0.7
 30
0.44
 11
0.0
 21
0.5
 31
1.0
  0
LINE
  5
93A
100
AcDbEntity
  8
0
  6
CONTINUOUS
100
AcDbLine
 10
-0.7
 20
0.0
 30
0.44
 11
-0.5
 21
0.0
 31
1.0
  0
LINE
  5
93B
100
AcDbEntity
  8
0
  6
CONTINUOUS
100
AcDbLine
 10
-0.5
 20
0.0
 30
0.0
 11
-0.7
 21
0.0
 31
0.22
  0
LINE
  5
93C
100
AcDbEntity
  8
0
  6
CONTINUOUS
100
AcDbLine
 10
-0.7
 20
0.0
 30
0.22
 11
-0.7
 21
0.0
 31
0.44
  0
LINE
  5
93D
100
AcDbEntity
  8
0
  6
CONTINUOUS
100
AcDbLine
 10
0.7
 20
0.0
 30
0.44
 11
0.5
 21
0.0
 31
1.0
  0
LINE
  5
93E
100
AcDbEntity
  8
0
  6
CONTINUOUS
100
AcDbLine
 10
0.5
 20
0.0
 30
0.0
 11
0.7
 21
0.0
 31
0.22
  0
LINE
  5
93F
100
AcDbEntity
  8
0
  6
CONTINUOUS
100
AcDbLine
 10
0.7
 20
0.0
 30
0.22
 11
0.7
 21
0.0
 31
0.44
  0
LINE
  5
940
100
AcDbEntity
  8
0
  6
CONTINUOUS
100
AcDbLine
 10
0.0
 20
-0.7
 30
0.44
 11
0.0
 21
-0.5
 31
1.0
  0
LINE
  5
941
100
AcDbEntity
  8
0
  6
CONTINUOUS
100
AcDbLine
 10
0.0
 20
-0.5
 30
0.0
 11
0.0
 21
-0.7
 31
0.22
  0
LINE
  5
942
100
AcDbEntity
  8
0
  6
CONTINUOUS
100
AcDbLine
 10
0.0
 20
-0.7
 30
0.22
 11
0.0
 21
-0.7
 31
0.44
  0
CIRCLE
  5
943
100
AcDbEntity
  8
0
  6
CONTINUOUS
100
AcDbCircle
 10
0.0
 20
0.0
 30
0.44
 40
0.7
  0
CIRCLE
  5
944
100
AcDbEntity
  8
0
  6
CONTINUOUS
100
AcDbCircle
 10
0.0
 20
0.0
 30
0.22
 40
0.7
  0
LINE
  5
945
100
AcDbEntity
  8
0
  6
CONTINUOUS
 62
     7
100
AcDbLine
 10
-0.518451
 20
0.0
 30
0.974266
 11
-0.645223
 21
0.221703
 31
0.611796
210
-0.9439341089019071
220
0.0
230
0.3301339092725288
  0
LINE
  5
946
100
AcDbEntity
  8
0
  6
CONTINUOUS
 62
     7
100
AcDbLine
 10
-0.645223
 20
-0.221703
 30
0.611796
 11
-0.645223
 21
0.221703
 31
0.611796
210
-0.9439341089019071
220
0.0
230
0.3301339092725288
  0
LINE
  5
947
100
AcDbEntity
  8
0
  6
CONTINUOUS
 62
     7
100
AcDbLine
 10
-0.518451
 20
0.0
 30
0.974266
 11
-0.645223
 21
-0.221703
 31
0.611796
210
-0.9439341089019071
220
0.0
230
0.3301339092725288
  0
CIRCLE
  5
948
100
AcDbEntity
  8
0
  6
CONTINUOUS
 62
     7
100
AcDbCircle
 10
0.0
 20
0.492485
 30
0.811022
 40
0.256
210
-0.9439341089019071
220
0.0
230
0.3301339092725288
  0
LINE
  5
949
100
AcDbEntity
  8
0
  6
CONTINUOUS
 62
     7
100
AcDbLine
 10
0.0
 20
0.518451
 30
0.974266
 11
-0.221703
 21
0.645223
 31
0.611796
210
0.0
220
0.9439341089019071
230
0.3301339092725288
  0
CIRCLE
  5
94A
100
AcDbEntity
  8
0
  6
CONTINUOUS
 62
     7
100
AcDbCircle
 10
0.0
 20
0.492485
 30
0.811022
 40
0.256
210
0.0
220
0.9439341089019071
230
0.3301339092725288
  0
LINE
  5
94B
100
AcDbEntity
  8
0
  6
CONTINUOUS
 62
     7
100
AcDbLine
 10
0.221703
 20
0.645223
 30
0.611796
 11
-0.221703
 21
0.645223
 31
0.611796
210
0.0
220
0.9439341089019071
230
0.3301339092725288
  0
LINE
  5
94C
100
AcDbEntity
  8
0
  6
CONTINUOUS
 62
     7
100
AcDbLine
 10
0.0
 20
0.518451
 30
0.974266
 11
0.221703
 21
0.645223
 31
0.611796
210
0.0
220
0.9439341089019071
230
0.3301339092725288
  0
LINE
  5
94D
100
AcDbEntity
  8
0
  6
CONTINUOUS
 62
     7
100
AcDbLine
 10
0.221703
 20
-0.645223
 30
0.611796
 11
-0.221703
 21
-0.645223
 31
0.611796
210
0.0
220
-0.9439341089019071
230
0.3301339092725288
  0
LINE
  5
94E
100
AcDbEntity
  8
0
  6
CONTINUOUS
 62
     7
100
AcDbLine
 10
0.0
 20
-0.518451
 30
0.974266
 11
0.221703
 21
-0.645223
 31
0.611796
210
0.0
220
-0.9439341089019071
230
0.3301339092725288
  0
CIRCLE
  5
94F
100
AcDbEntity
  8
0
  6
CONTINUOUS
 62
     7
100
AcDbCircle
 10
0.0
 20
0.492485
 30
0.811022
 40
0.256
210
0.0
220
-0.9439341089019071
230
0.3301339092725288
  0
LINE
  5
950
100
AcDbEntity
  8
0
  6
CONTINUOUS
 62
     7
100
AcDbLine
 10
0.0
 20
-0.518451
 30
0.974266
 11
-0.221703
 21
-0.645223
 31
0.611796
210
0.0
220
-0.9439341089019071
230
0.3301339092725288
  0
ENDBLK
  5
952
100
AcDbEntity
  8
0
 62
     2
100
AcDbBlockEnd
  0
BLOCK
  5
959
100
AcDbEntity
  8
0
100
AcDbBlockBegin
  2
ELE123V103_2
 70
     2
 10
0.0
 20
0.0
 30
0.0
  3
ELE123V103_2
  1

  0
INSERT
  5
95A
100
AcDbEntity
  8
VZ1
  6
CONTINUOUS
 62
     2
100
AcDbBlockReference
  2
VE011
 10
0.0
 20
0.0
 30
0.0
 41
355.0
 42
355.0
 43
176.0
  0
ATTDEF
  5
95B
100
AcDbEntity
  8
VZ1
  6
CONTINUOUS
 62
     2
100
AcDbText
 10
0.0
 20
0.0
 30
0.0
 40
1.0
  1
3383
 41
0.8
  7
ROMANS
100
AcDbAttributeDefinition
  3

  2
VETA
 70
     1
  0
ATTDEF
  5
95C
100
AcDbEntity
  8
VZ1
  6
CONTINUOUS
 62
     2
100
AcDbText
 10
0.0
 20
0.0
 30
0.0
 40
1.0
  1

 41
0.8
  7
ROMANS
100
AcDbAttributeDefinition
  3

  2
POS
 70
     1
  0
ATTDEF
  5
95D
100
AcDbEntity
  8
VZ1
  6
CONTINUOUS
 62
     2
100
AcDbText
 10
0.0
 20
0.0
 30
0.0
 40
1.0
  1
TCFB/4-355 H
 41
0.8
  7
ROMANS
100
AcDbAttributeDefinition
  3

  2
NAZEV
 70
     1
  0
ATTDEF
  5
95E
100
AcDbEntity
  8
VZ1
  6
CONTINUOUS
 62
     2
100
AcDbText
 10
0.0
 20
0.0
 30
0.0
 40
1.0
  1

 41
0.8
  7
ROMANS
100
AcDbAttributeDefinition
  3

  2
TYP
 70
     1
  0
ENDBLK
  5
95F
100
AcDbEntity
  8
0
100
AcDbBlockEnd
  0
BLOCK
  5
983
100
AcDbEntity
  8
0
100
AcDbBlockBegin
  2
ELE123V103_3
 70
     2
 10
0.0
 20
0.0
 30
0.0
  3
ELE123V103_3
  1

  0
CIRCLE
  5
984
100
AcDbEntity
  8
VZ1
  6
CONTINUOUS
 62
     2
100
AcDbCircle
 39
150.0
 10
0.0
 20
0.0
 30
0.0
 40
177.5
  0
ATTDEF
  5
985
100
AcDbEntity
  8
VZ1
  6
CONTINUOUS
 62
     2
100
AcDbText
 10
0.0
 20
0.0
 30
0.0
 40
1.0
  1
3383
 41
0.8
  7
ROMANS
100
AcDbAttributeDefinition
  3

  2
VETA
 70
     1
  0
ATTDEF
  5
986
100
AcDbEntity
  8
VZ1
  6
CONTINUOUS
 62
     2
100
AcDbText
 10
0.0
 20
0.0
 30
0.0
 40
1.0
  1

 41
0.8
  7
ROMANS
100
AcDbAttributeDefinition
  3

  2
POS
 70
     1
  0
ATTDEF
  5
987
100
AcDbEntity
  8
VZ1
  6
CONTINUOUS
 62
     2
100
AcDbText
 10
0.0
 20
0.0
 30
0.0
 40
1.0
  1
TCFB/4-355 H
 41
0.8
  7
ROMANS
100
AcDbAttributeDefinition
  3

  2
NAZEV
 70
     1
  0
ATTDEF
  5
988
100
AcDbEntity
  8
VZ1
  6
CONTINUOUS
 62
     2
100
AcDbText
 10
0.0
 20
0.0
 30
0.0
 40
1.0
  1

 41
0.8
  7
ROMANS
100
AcDbAttributeDefinition
  3

  2
TYP
 70
     1
  0
ENDBLK
  5
989
100
AcDbEntity
  8
0
100
AcDbBlockEnd
  0
BLOCK
  5
998
100
AcDbEntity
  8
0
100
AcDbBlockBegin
  2
ELE123V103_4
 70
     2
 10
0.0
 20
0.0
 30
0.0
  3
ELE123V103_4
  1

  0
CIRCLE
  5
999
100
AcDbEntity
  8
VZ1
  6
CONTINUOUS
 62
     2
100
AcDbCircle
 39
150.0
 10
0.0
 20
0.0
 30
0.0
 40
177.5
  0
ATTDEF
  5
99A
100
AcDbEntity
  8
VZ1
  6
CONTINUOUS
 62
     2
100
AcDbText
 10
0.0
 20
0.0
 30
0.0
 40
1.0
  1
3383
 41
0.8
  7
ROMANS
100
AcDbAttributeDefinition
  3

  2
VETA
 70
     1
  0
ATTDEF
  5
99B
100
AcDbEntity
  8
VZ1
  6
CONTINUOUS
 62
     2
100
AcDbText
 10
0.0
 20
0.0
 30
0.0
 40
1.0
  1

 41
0.8
  7
ROMANS
100
AcDbAttributeDefinition
  3

  2
POS
 70
     1
  0
ATTDEF
  5
99C
100
AcDbEntity
  8
VZ1
  6
CONTINUOUS
 62
     2
100
AcDbText
 10
0.0
 20
0.0
 30
0.0
 40
1.0
  1
TCFB/4-355 H
 41
0.8
  7
ROMANS
100
AcDbAttributeDefinition
  3

  2
NAZEV
 70
     1
  0
ATTDEF
  5
99D
100
AcDbEntity
  8
VZ1
  6
CONTINUOUS
 62
     2
100
AcDbText
 10
0.0
 20
0.0
 30
0.0
 40
1.0
  1

 41
0.8
  7
ROMANS
100
AcDbAttributeDefinition
  3

  2
TYP
 70
     1
  0
ENDBLK
  5
99E
100
AcDbEntity
  8
0
100
AcDbBlockEnd
  0
BLOCK
  5
B19
100
AcDbEntity
  8
0
100
AcDbBlockBegin
  2
VE041
 70
     0
 10
0.0
 20
0.0
 30
0.0
  3
VE041
  1

  0
POLYLINE
  5
AE0
100
AcDbEntity
  8
0
  6
CONTINUOUS
 62
     7
100
AcDbPolygonMesh
 66
     1
 10
0.0
 20
0.0
 30
0.0
 70
    48
 71
     2
 72
    12
  0
VERTEX
  5
AE1
100
AcDbEntity
  8
0
  6
CONTINUOUS
 62
     7
100
AcDbVertex
100
AcDbPolygonMeshVertex
 10
0.625
 20
0.0
 30
0.52
 70
    64
  0
VERTEX
  5
AE2
100
AcDbEntity
  8
0
  6
CONTINUOUS
 62
     7
100
AcDbVertex
100
AcDbPolygonMeshVertex
 10
0.541266
 20
0.3125
 30
0.52
 70
    64
  0
VERTEX
  5
AE3
100
AcDbEntity
  8
0
  6
CONTINUOUS
 62
     7
100
AcDbVertex
100
AcDbPolygonMeshVertex
 10
0.3125
 20
0.541266
 30
0.52
 70
    64
  0
VERTEX
  5
AE4
100
AcDbEntity
  8
0
  6
CONTINUOUS
 62
     7
100
AcDbVertex
100
AcDbPolygonMeshVertex
 10
0.0
 20
0.625
 30
0.52
 70
    64
  0
VERTEX
  5
AE5
100
AcDbEntity
  8
0
  6
CONTINUOUS
 62
     7
100
AcDbVertex
100
AcDbPolygonMeshVertex
 10
-0.3125
 20
0.541266
 30
0.52
 70
    64
  0
VERTEX
  5
AE6
100
AcDbEntity
  8
0
  6
CONTINUOUS
 62
     7
100
AcDbVertex
100
AcDbPolygonMeshVertex
 10
-0.541266
 20
0.3125
 30
0.52
 70
    64
  0
VERTEX
  5
AE7
100
AcDbEntity
  8
0
  6
CONTINUOUS
 62
     7
100
AcDbVertex
100
AcDbPolygonMeshVertex
 10
-0.625
 20
0.0
 30
0.52
 70
    64
  0
VERTEX
  5
AE8
100
AcDbEntity
  8
0
  6
CONTINUOUS
 62
     7
100
AcDbVertex
100
AcDbPolygonMeshVertex
 10
-0.541266
 20
-0.3125
 30
0.52
 70
    64
  0
VERTEX
  5
AE9
100
AcDbEntity
  8
0
  6
CONTINUOUS
 62
     7
100
AcDbVertex
100
AcDbPolygonMeshVertex
 10
-0.3125
 20
-0.541266
 30
0.52
 70
    64
  0
VERTEX
  5
AEA
100
AcDbEntity
  8
0
  6
CONTINUOUS
 62
     7
100
AcDbVertex
100
AcDbPolygonMeshVertex
 10
0.0
 20
-0.625
 30
0.52
 70
    64
  0
VERTEX
  5
AEB
100
AcDbEntity
  8
0
  6
CONTINUOUS
 62
     7
100
AcDbVertex
100
AcDbPolygonMeshVertex
 10
0.3125
 20
-0.541266
 30
0.52
 70
    64
  0
VERTEX
  5
AEC
100
AcDbEntity
  8
0
  6
CONTINUOUS
 62
     7
100
AcDbVertex
100
AcDbPolygonMeshVertex
 10
0.541266
 20
-0.3125
 30
0.52
 70
    64
  0
VERTEX
  5
AED
100
AcDbEntity
  8
0
  6
CONTINUOUS
 62
     7
100
AcDbVertex
100
AcDbPolygonMeshVertex
 10
0.3
 20
0.0
 30
0.05
 70
    64
  0
VERTEX
  5
AEE
100
AcDbEntity
  8
0
  6
CONTINUOUS
 62
     7
100
AcDbVertex
100
AcDbPolygonMeshVertex
 10
0.259808
 20
0.15
 30
0.05
 70
    64
  0
VERTEX
  5
AEF
100
AcDbEntity
  8
0
  6
CONTINUOUS
 62
     7
100
AcDbVertex
100
AcDbPolygonMeshVertex
 10
0.15
 20
0.259808
 30
0.05
 70
    64
  0
VERTEX
  5
AF0
100
AcDbEntity
  8
0
  6
CONTINUOUS
 62
     7
100
AcDbVertex
100
AcDbPolygonMeshVertex
 10
0.0
 20
0.3
 30
0.05
 70
    64
  0
VERTEX
  5
AF1
100
AcDbEntity
  8
0
  6
CONTINUOUS
 62
     7
100
AcDbVertex
100
AcDbPolygonMeshVertex
 10
-0.15
 20
0.259808
 30
0.05
 70
    64
  0
VERTEX
  5
AF2
100
AcDbEntity
  8
0
  6
CONTINUOUS
 62
     7
100
AcDbVertex
100
AcDbPolygonMeshVertex
 10
-0.259808
 20
0.15
 30
0.05
 70
    64
  0
VERTEX
  5
AF3
100
AcDbEntity
  8
0
  6
CONTINUOUS
 62
     7
100
AcDbVertex
100
AcDbPolygonMeshVertex
 10
-0.3
 20
0.0
 30
0.05
 70
    64
  0
VERTEX
  5
AF4
100
AcDbEntity
  8
0
  6
CONTINUOUS
 62
     7
100
AcDbVertex
100
AcDbPolygonMeshVertex
 10
-0.259808
 20
-0.15
 30
0.05
 70
    64
  0
VERTEX
  5
AF5
100
AcDbEntity
  8
0
  6
CONTINUOUS
 62
     7
100
AcDbVertex
100
AcDbPolygonMeshVertex
 10
-0.15
 20
-0.259808
 30
0.05
 70
    64
  0
VERTEX
  5
AF6
100
AcDbEntity
  8
0
  6
CONTINUOUS
 62
     7
100
AcDbVertex
100
AcDbPolygonMeshVertex
 10
0.0
 20
-0.3
 30
0.05
 70
    64
  0
VERTEX
  5
AF7
100
AcDbEntity
  8
0
  6
CONTINUOUS
 62
     7
100
AcDbVertex
100
AcDbPolygonMeshVertex
 10
0.15
 20
-0.259808
 30
0.05
 70
    64
  0
VERTEX
  5
AF8
100
AcDbEntity
  8
0
  6
CONTINUOUS
 62
     7
100
AcDbVertex
100
AcDbPolygonMeshVertex
 10
0.259808
 20
-0.15
 30
0.05
 70
    64
  0
SEQEND
  5
AF9
100
AcDbEntity
  8
0
  6
CONTINUOUS
 62
     7
  0
LINE
  5
AFA
100
AcDbEntity
  8
0
  6
CENTER
 62
     7
100
AcDbLine
 10
0.0
 20
0.0
 30
0.0
 11
0.0
 21
0.0
 31
1.0
  0
SOLID
  5
AFB
100
AcDbEntity
  8
0
  6
CONTINUOUS
100
AcDbTrace
 10
-0.5
 20
-0.5
 30
0.0
 11
0.5
 21
-0.5
 31
0.0
 12
-0.5
 22
0.5
 32
0.0
 13
0.5
 23
0.5
 33
0.0
 39
0.05
  0
CIRCLE
  5
AFC
100
AcDbEntity
  8
0
  6
CONTINUOUS
100
AcDbCircle
 10
0.0
 20
0.0
 30
0.05
 40
0.3
  0
POLYLINE
  5
AFD
100
AcDbEntity
  8
0
  6
CONTINUOUS
 62
     7
100
AcDbPolygonMesh
 66
     1
 10
0.0
 20
0.0
 30
0.0
 70
    48
 71
     2
 72
    12
  0
VERTEX
  5
AFE
100
AcDbEntity
  8
0
  6
CONTINUOUS
 62
     7
100
AcDbVertex
100
AcDbPolygonMeshVertex
 10
0.45
 20
0.0
 30
1.0
 70
    64
  0
VERTEX
  5
AFF
100
AcDbEntity
  8
0
  6
CONTINUOUS
 62
     7
100
AcDbVertex
100
AcDbPolygonMeshVertex
 10
0.389711
 20
0.225
 30
1.0
 70
    64
  0
VERTEX
  5
B00
100
AcDbEntity
  8
0
  6
CONTINUOUS
 62
     7
100
AcDbVertex
100
AcDbPolygonMeshVertex
 10
0.225
 20
0.389711
 30
1.0
 70
    64
  0
VERTEX
  5
B01
100
AcDbEntity
  8
0
  6
CONTINUOUS
 62
     7
100
AcDbVertex
100
AcDbPolygonMeshVertex
 10
0.0
 20
0.45
 30
1.0
 70
    64
  0
VERTEX
  5
B02
100
AcDbEntity
  8
0
  6
CONTINUOUS
 62
     7
100
AcDbVertex
100
AcDbPolygonMeshVertex
 10
-0.225
 20
0.389711
 30
1.0
 70
    64
  0
VERTEX
  5
B03
100
AcDbEntity
  8
0
  6
CONTINUOUS
 62
     7
100
AcDbVertex
100
AcDbPolygonMeshVertex
 10
-0.389711
 20
0.225
 30
1.0
 70
    64
  0
VERTEX
  5
B04
100
AcDbEntity
  8
0
  6
CONTINUOUS
 62
     7
100
AcDbVertex
100
AcDbPolygonMeshVertex
 10
-0.45
 20
0.0
 30
1.0
 70
    64
  0
VERTEX
  5
B05
100
AcDbEntity
  8
0
  6
CONTINUOUS
 62
     7
100
AcDbVertex
100
AcDbPolygonMeshVertex
 10
-0.389711
 20
-0.225
 30
1.0
 70
    64
  0
VERTEX
  5
B06
100
AcDbEntity
  8
0
  6
CONTINUOUS
 62
     7
100
AcDbVertex
100
AcDbPolygonMeshVertex
 10
-0.225
 20
-0.389711
 30
1.0
 70
    64
  0
VERTEX
  5
B07
100
AcDbEntity
  8
0
  6
CONTINUOUS
 62
     7
100
AcDbVertex
100
AcDbPolygonMeshVertex
 10
0.0
 20
-0.45
 30
1.0
 70
    64
  0
VERTEX
  5
B08
100
AcDbEntity
  8
0
  6
CONTINUOUS
 62
     7
100
AcDbVertex
100
AcDbPolygonMeshVertex
 10
0.225
 20
-0.389711
 30
1.0
 70
    64
  0
VERTEX
  5
B09
100
AcDbEntity
  8
0
  6
CONTINUOUS
 62
     7
100
AcDbVertex
100
AcDbPolygonMeshVertex
 10
0.389711
 20
-0.225
 30
1.0
 70
    64
  0
VERTEX
  5
B0A
100
AcDbEntity
  8
0
  6
CONTINUOUS
 62
     7
100
AcDbVertex
100
AcDbPolygonMeshVertex
 10
0.625
 20
0.0
 30
0.52
 70
    64
  0
VERTEX
  5
B0B
100
AcDbEntity
  8
0
  6
CONTINUOUS
 62
     7
100
AcDbVertex
100
AcDbPolygonMeshVertex
 10
0.541266
 20
0.3125
 30
0.52
 70
    64
  0
VERTEX
  5
B0C
100
AcDbEntity
  8
0
  6
CONTINUOUS
 62
     7
100
AcDbVertex
100
AcDbPolygonMeshVertex
 10
0.3125
 20
0.541266
 30
0.52
 70
    64
  0
VERTEX
  5
B0D
100
AcDbEntity
  8
0
  6
CONTINUOUS
 62
     7
100
AcDbVertex
100
AcDbPolygonMeshVertex
 10
0.0
 20
0.625
 30
0.52
 70
    64
  0
VERTEX
  5
B0E
100
AcDbEntity
  8
0
  6
CONTINUOUS
 62
     7
100
AcDbVertex
100
AcDbPolygonMeshVertex
 10
-0.3125
 20
0.541266
 30
0.52
 70
    64
  0
VERTEX
  5
B0F
100
AcDbEntity
  8
0
  6
CONTINUOUS
 62
     7
100
AcDbVertex
100
AcDbPolygonMeshVertex
 10
-0.541266
 20
0.3125
 30
0.52
 70
    64
  0
VERTEX
  5
B10
100
AcDbEntity
  8
0
  6
CONTINUOUS
 62
     7
100
AcDbVertex
100
AcDbPolygonMeshVertex
 10
-0.625
 20
0.0
 30
0.52
 70
    64
  0
VERTEX
  5
B11
100
AcDbEntity
  8
0
  6
CONTINUOUS
 62
     7
100
AcDbVertex
100
AcDbPolygonMeshVertex
 10
-0.541266
 20
-0.3125
 30
0.52
 70
    64
  0
VERTEX
  5
B12
100
AcDbEntity
  8
0
  6
CONTINUOUS
 62
     7
100
AcDbVertex
100
AcDbPolygonMeshVertex
 10
-0.3125
 20
-0.541266
 30
0.52
 70
    64
  0
VERTEX
  5
B13
100
AcDbEntity
  8
0
  6
CONTINUOUS
 62
     7
100
AcDbVertex
100
AcDbPolygonMeshVertex
 10
0.0
 20
-0.625
 30
0.52
 70
    64
  0
VERTEX
  5
B14
100
AcDbEntity
  8
0
  6
CONTINUOUS
 62
     7
100
AcDbVertex
100
AcDbPolygonMeshVertex
 10
0.3125
 20
-0.541266
 30
0.52
 70
    64
  0
VERTEX
  5
B15
100
AcDbEntity
  8
0
  6
CONTINUOUS
 62
     7
100
AcDbVertex
100
AcDbPolygonMeshVertex
 10
0.541266
 20
-0.3125
 30
0.52
 70
    64
  0
SEQEND
  5
B16
100
AcDbEntity
  8
0
  6
CONTINUOUS
 62
     7
  0
CIRCLE
  5
B17
100
AcDbEntity
  8
0
  6
CONTINUOUS
100
AcDbCircle
 10
0.0
 20
0.0
 30
0.52
 40
0.625
  0
CIRCLE
  5
B18
100
AcDbEntity
  8
0
  6
CONTINUOUS
100
AcDbCircle
 10
0.0
 20
0.0
 30
1.0
 40
0.45
  0
ENDBLK
  5
B1A
100
AcDbEntity
  8
0
100
AcDbBlockEnd
  0
BLOCK
  5
B21
100
AcDbEntity
  8
0
100
AcDbBlockBegin
  2
ELE123V103_5
 70
     2
 10
0.0
 20
0.0
 30
0.0
  3
ELE123V103_5
  1

  0
INSERT
  5
B22
100
AcDbEntity
  8
VZ1
  6
CONTINUOUS
100
AcDbBlockReference
  2
VE041
 10
0.0
 20
0.0
 30
0.0
 41
435.0
 42
435.0
 43
445.0
  0
ATTDEF
  5
B23
100
AcDbEntity
  8
VZ1
  6
CONTINUOUS
100
AcDbText
 10
0.0
 20
0.0
 30
0.0
 40
1.0
  1
4025
 41
0.8
  7
ROMANS
100
AcDbAttributeDefinition
  3

  2
VETA
 70
     1
  0
ATTDEF
  5
B24
100
AcDbEntity
  8
VZ1
  6
CONTINUOUS
100
AcDbText
 10
0.0
 20
0.0
 30
0.0
 40
1.0
  1

 41
0.8
  7
ROMANS
100
AcDbAttributeDefinition
  3

  2
POS
 70
     1
  0
ATTDEF
  5
B25
100
AcDbEntity
  8
VZ1
  6
CONTINUOUS
100
AcDbText
 10
0.0
 20
0.0
 30
0.0
 40
1.0
  1
VDA 225/8D
 41
0.8
  7
ROMANS
100
AcDbAttributeDefinition
  3

  2
NAZEV
 70
     1
  0
ATTDEF
  5
B26
100
AcDbEntity
  8
VZ1
  6
CONTINUOUS
100
AcDbText
 10
0.0
 20
0.0
 30
0.0
 40
1.0
  1

 41
0.8
  7
ROMANS
100
AcDbAttributeDefinition
  3

  2
TYP
 70
     1
  0
ENDBLK
  5
B27
100
AcDbEntity
  8
0
100
AcDbBlockEnd
  0
BLOCK
  5
B55
100
AcDbEntity
  8
0
100
AcDbBlockBegin
  2
3D-VDA-200
 70
     0
 10
0.0
 20
0.0
 30
0.0
  3
3D-VDA-200
  1

  0
POINT
  5
B38
100
AcDbEntity
  8
0
  6
CONTINUOUS
100
AcDbPoint
 10
0.0
 20
0.0
 30
0.0
  0
3DFACE
  5
B39
100
AcDbEntity
  8
0
  6
CONTINUOUS
 62
     7
100
AcDbFace
 10
0.0
 20
195.75
 30
400.0
 11
-97.875
 21
169.524473
 31
400.0
 12
-135.9375
 22
235.450657
 32
208.0
 13
0.0
 23
271.875
 33
208.0
  0
3DFACE
  5
B3A
100
AcDbEntity
  8
0
  6
CONTINUOUS
 62
     7
100
AcDbFace
 10
-97.875
 20
-169.524473
 30
400.0
 11
0.0
 21
-195.75
 31
400.0
 12
0.0
 22
-271.875
 32
208.0
 13
-135.9375
 23
-235.450657
 33
208.0
  0
ELLIPSE
  5
B3B
100
AcDbEntity
  8
0
  6
CONTINUOUS
100
AcDbEllipse
 10
0.0
 20
0.0
 30
400.0
 11
-138.4161524172667
 21
138.4161524172666
 31
0.0
210
0.0
220
0.0
230
-1.0
 40
1.0
 41
0.0
 42
6.283185307179586
  0
ELLIPSE
  5
B3C
100
AcDbEntity
  8
0
  6
CONTINUOUS
100
AcDbEllipse
 10
0.0
 20
0.0
 30
20.0
 11
-92.27743494484446
 21
92.27743494484444
 31
0.0
210
0.0
220
0.0
230
-1.0
 40
1.0
 41
0.0
 42
6.283185307179586
  0
SOLID
  5
B3D
100
AcDbEntity
  8
0
  6
CONTINUOUS
100
AcDbTrace
 10
-217.5
 20
-217.5
 30
0.0
 11
217.5
 21
-217.5
 31
0.0
 12
-217.5
 22
217.5
 32
0.0
 13
217.5
 23
217.5
 33
0.0
 39
20.0
  0
3DFACE
  5
B3E
100
AcDbEntity
  8
0
  6
CONTINUOUS
 62
     7
100
AcDbFace
 10
-135.9375
 20
-235.450657
 30
208.0
 11
0.0
 21
-271.875
 31
208.0
 12
0.0
 22
-130.5
 32
20.0
 13
-65.25
 23
-113.016315
 33
20.0
  0
3DFACE
  5
B3F
100
AcDbEntity
  8
0
  6
CONTINUOUS
 62
     7
100
AcDbFace
 10
0.0
 20
271.875
 30
208.0
 11
-135.9375
 21
235.450657
 31
208.0
 12
-65.25
 22
113.016315
 32
20.0
 13
0.0
 23
130.5
 33
20.0
  0
ELLIPSE
  5
B40
100
AcDbEntity
  8
0
  6
CONTINUOUS
100
AcDbEllipse
 10
0.0
 20
0.0
 30
208.0
 11
-192.2446561350925
 21
192.2446561350925
 31
0.0
210
0.0
220
0.0
230
-1.0
 40
1.0
 41
0.0
 42
6.283185307179586
  0
3DFACE
  5
B41
100
AcDbEntity
  8
0
  6
CONTINUOUS
 62
     7
100
AcDbFace
 10
-235.450657
 20
-135.9375
 30
208.0
 11
-135.9375
 21
-235.450657
 31
208.0
 12
-65.25
 22
-113.016315
 32
20.0
 13
-113.016315
 23
-65.25
 33
20.0
  0
3DFACE
  5
B42
100
AcDbEntity
  8
0
  6
CONTINUOUS
 62
     7
100
AcDbFace
 10
-271.875
 20
0.0
 30
208.0
 11
-235.450657
 21
-135.9375
 31
208.0
 12
-113.016315
 22
-65.25
 32
20.0
 13
-130.5
 23
0.0
 33
20.0
  0
3DFACE
  5
B43
100
AcDbEntity
  8
0
  6
CONTINUOUS
 62
     7
100
AcDbFace
 10
-235.450657
 20
135.9375
 30
208.0
 11
-271.875
 21
0.0
 31
208.0
 12
-130.5
 22
0.0
 32
20.0
 13
-113.016315
 23
65.25
 33
20.0
  0
3DFACE
  5
B44
100
AcDbEntity
  8
0
  6
CONTINUOUS
 62
     7
100
AcDbFace
 10
-135.9375
 20
235.450657
 30
208.0
 11
-235.450657
 21
135.9375
 31
208.0
 12
-113.016315
 22
65.25
 32
20.0
 13
-65.25
 23
113.016315
 33
20.0
  0
3DFACE
  5
B45
100
AcDbEntity
  8
0
  6
CONTINUOUS
 62
     7
100
AcDbFace
 10
-169.524473
 20
97.875
 30
400.0
 11
-195.75
 21
0.0
 31
400.0
 12
-271.875
 22
0.0
 32
208.0
 13
-235.450657
 23
135.9375
 33
208.0
  0
3DFACE
  5
B46
100
AcDbEntity
  8
0
  6
CONTINUOUS
 62
     7
100
AcDbFace
 10
-195.75
 20
0.0
 30
400.0
 11
-169.524473
 21
-97.875
 31
400.0
 12
-235.450657
 22
-135.9375
 32
208.0
 13
-271.875
 23
0.0
 33
208.0
  0
3DFACE
  5
B47
100
AcDbEntity
  8
0
  6
CONTINUOUS
 62
     7
100
AcDbFace
 10
-169.524473
 20
-97.875
 30
400.0
 11
-97.875
 21
-169.524473
 31
400.0
 12
-135.9375
 22
-235.450657
 32
208.0
 13
-235.450657
 23
-135.9375
 33
208.0
  0
3DFACE
  5
B48
100
AcDbEntity
  8
0
  6
CONTINUOUS
 62
     7
100
AcDbFace
 10
-97.875
 20
169.524473
 30
400.0
 11
-169.524473
 21
97.875
 31
400.0
 12
-235.450657
 22
135.9375
 32
208.0
 13
-135.9375
 23
235.450657
 33
208.0
  0
3DFACE
  5
B49
100
AcDbEntity
  8
0
  6
CONTINUOUS
 62
     7
100
AcDbFace
 10
135.9375
 20
-235.450657
 30
208.0
 11
235.450657
 21
-135.9375
 31
208.0
 12
113.016315
 22
-65.25
 32
20.0
 13
65.25
 23
-113.016315
 33
20.0
  0
3DFACE
  5
B4A
100
AcDbEntity
  8
0
  6
CONTINUOUS
 62
     7
100
AcDbFace
 10
0.0
 20
-271.875
 30
208.0
 11
135.9375
 21
-235.450657
 31
208.0
 12
65.25
 22
-113.016315
 32
20.0
 13
0.0
 23
-130.5
 33
20.0
  0
3DFACE
  5
B4B
100
AcDbEntity
  8
0
  6
CONTINUOUS
 62
     7
100
AcDbFace
 10
135.9375
 20
235.450657
 30
208.0
 11
0.0
 21
271.875
 31
208.0
 12
0.0
 22
130.5
 32
20.0
 13
65.25
 23
113.016315
 33
20.0
  0
3DFACE
  5
B4C
100
AcDbEntity
  8
0
  6
CONTINUOUS
 62
     7
100
AcDbFace
 10
235.450657
 20
135.9375
 30
208.0
 11
135.9375
 21
235.450657
 31
208.0
 12
65.25
 22
113.016315
 32
20.0
 13
113.016315
 23
65.25
 33
20.0
  0
3DFACE
  5
B4D
100
AcDbEntity
  8
0
  6
CONTINUOUS
 62
     7
100
AcDbFace
 10
235.450657
 20
-135.9375
 30
208.0
 11
271.875
 21
0.0
 31
208.0
 12
130.5
 22
0.0
 32
20.0
 13
113.016315
 23
-65.25
 33
20.0
  0
3DFACE
  5
B4E
100
AcDbEntity
  8
0
  6
CONTINUOUS
 62
     7
100
AcDbFace
 10
271.875
 20
0.0
 30
208.0
 11
235.450657
 21
135.9375
 31
208.0
 12
113.016315
 22
65.25
 32
20.0
 13
130.5
 23
0.0
 33
20.0
  0
3DFACE
  5
B4F
100
AcDbEntity
  8
0
  6
CONTINUOUS
 62
     7
100
AcDbFace
 10
169.524473
 20
97.875
 30
400.0
 11
97.875
 21
169.524473
 31
400.0
 12
135.9375
 22
235.450657
 32
208.0
 13
235.450657
 23
135.9375
 33
208.0
  0
3DFACE
  5
B50
100
AcDbEntity
  8
0
  6
CONTINUOUS
 62
     7
100
AcDbFace
 10
97.875
 20
-169.524473
 30
400.0
 11
169.524473
 21
-97.875
 31
400.0
 12
235.450657
 22
-135.9375
 32
208.0
 13
135.9375
 23
-235.450657
 33
208.0
  0
3DFACE
  5
B51
100
AcDbEntity
  8
0
  6
CONTINUOUS
 62
     7
100
AcDbFace
 10
0.0
 20
-195.75
 30
400.0
 11
97.875
 21
-169.524473
 31
400.0
 12
135.9375
 22
-235.450657
 32
208.0
 13
0.0
 23
-271.875
 33
208.0
  0
3DFACE
  5
B52
100
AcDbEntity
  8
0
  6
CONTINUOUS
 62
     7
100
AcDbFace
 10
97.875
 20
169.524473
 30
400.0
 11
0.0
 21
195.75
 31
400.0
 12
0.0
 22
271.875
 32
208.0
 13
135.9375
 23
235.450657
 33
208.0
  0
3DFACE
  5
B53
100
AcDbEntity
  8
0
  6
CONTINUOUS
 62
     7
100
AcDbFace
 10
169.524473
 20
-97.875
 30
400.0
 11
195.75
 21
0.0
 31
400.0
 12
271.875
 22
0.0
 32
208.0
 13
235.450657
 23
-135.9375
 33
208.0
  0
3DFACE
  5
B54
100
AcDbEntity
  8
0
  6
CONTINUOUS
 62
     7
100
AcDbFace
 10
195.75
 20
0.0
 30
400.0
 11
169.524473
 21
97.875
 31
400.0
 12
235.450657
 22
135.9375
 32
208.0
 13
271.875
 23
0.0
 33
208.0
  0
ENDBLK
  5
B56
100
AcDbEntity
  8
0
100
AcDbBlockEnd
  0
BLOCK
  5
B5E
100
AcDbEntity
  8
0
100
AcDbBlockBegin
  2
ELE-225-3D_6
 70
     2
 10
0.0
 20
0.0
 30
0.0
  3
ELE-225-3D_6
  1

  0
INSERT
  5
B5F
100
AcDbEntity
  8
VZ1
  6
CONTINUOUS
100
AcDbBlockReference
  2
VE041
 10
0.0
 20
0.0
 30
0.0
 41
917.0
 42
917.0
 43
801.0
  0
ATTDEF
  5
B60
100
AcDbEntity
  8
VZ1
  6
CONTINUOUS
100
AcDbText
 10
0.0
 20
0.0
 30
0.0
 40
1.0
  1
4088
 41
0.8
  7
ROMANS
100
AcDbAttributeDefinition
  3

  2
VETA
 70
     1
  0
ATTDEF
  5
B61
100
AcDbEntity
  8
VZ1
  6
CONTINUOUS
100
AcDbText
 10
0.0
 20
0.0
 30
0.0
 40
1.0
  1

 41
0.8
  7
ROMANS
100
AcDbAttributeDefinition
  3

  2
POS
 70
     1
  0
ATTDEF
  5
B62
100
AcDbEntity
  8
VZ1
  6
CONTINUOUS
100
AcDbText
 10
0.0
 20
0.0
 30
0.0
 40
1.0
  1
VDA 560/12D
 41
0.8
  7
ROMANS
100
AcDbAttributeDefinition
  3

  2
NAZEV
 70
     1
  0
ATTDEF
  5
B63
100
AcDbEntity
  8
VZ1
  6
CONTINUOUS
100
AcDbText
 10
0.0
 20
0.0
 30
0.0
 40
1.0
  1
STRESNI VENTILATOR
 41
0.8
  7
ROMANS
100
AcDbAttributeDefinition
  3

  2
TYP
 70
     1
  0
ENDBLK
  5
B64
100
AcDbEntity
  8
0
100
AcDbBlockEnd
  0
BLOCK
  5
BC8
100
AcDbEntity
  8
0
100
AcDbBlockBegin
  2
ZNAKM
 70
     2
 10
0.0
 20
0.0
 30
0.0
  3
ZNAKM
  1

  0
POLYLINE
  5
B6E
100
AcDbEntity
  8
0
  6
CONTINUOUS
100
AcDbPolygonMesh
 66
     1
 10
0.0
 20
0.0
 30
0.0
 70
    17
 71
    12
 72
     7
  0
VERTEX
  5
B6F
100
AcDbEntity
  8
0
  6
CONTINUOUS
100
AcDbVertex
100
AcDbPolygonMeshVertex
 10
0.0
 20
-0.75
 30
0.0
 70
    64
  0
VERTEX
  5
B70
100
AcDbEntity
  8
0
  6
CONTINUOUS
100
AcDbVertex
100
AcDbPolygonMeshVertex
 10
0.375
 20
-0.649519
 30
0.0
 70
    64
  0
VERTEX
  5
B71
100
AcDbEntity
  8
0
  6
CONTINUOUS
100
AcDbVertex
100
AcDbPolygonMeshVertex
 10
0.649519
 20
-0.375
 30
0.0
 70
    64
  0
VERTEX
  5
B72
100
AcDbEntity
  8
0
  6
CONTINUOUS
100
AcDbVertex
100
AcDbPolygonMeshVertex
 10
0.75
 20
0.0
 30
0.0
 70
    64
  0
VERTEX
  5
B73
100
AcDbEntity
  8
0
  6
CONTINUOUS
100
AcDbVertex
100
AcDbPolygonMeshVertex
 10
0.649519
 20
0.375
 30
0.0
 70
    64
  0
VERTEX
  5
B74
100
AcDbEntity
  8
0
  6
CONTINUOUS
100
AcDbVertex
100
AcDbPolygonMeshVertex
 10
0.375
 20
0.649519
 30
0.0
 70
    64
  0
VERTEX
  5
B75
100
AcDbEntity
  8
0
  6
CONTINUOUS
100
AcDbVertex
100
AcDbPolygonMeshVertex
 10
0.0
 20
0.75
 30
0.0
 70
    64
  0
VERTEX
  5
B76
100
AcDbEntity
  8
0
  6
CONTINUOUS
100
AcDbVertex
100
AcDbPolygonMeshVertex
 10
0.0
 20
-0.75
 30
0.0
 70
    64
  0
VERTEX
  5
B77
100
AcDbEntity
  8
0
  6
CONTINUOUS
100
AcDbVertex
100
AcDbPolygonMeshVertex
 10
0.32476
 20
-0.649519
 30
-0.1875
 70
    64
  0
VERTEX
  5
B78
100
AcDbEntity
  8
0
  6
CONTINUOUS
100
AcDbVertex
100
AcDbPolygonMeshVertex
 10
0.5625
 20
-0.375
 30
-0.32476
 70
    64
  0
VERTEX
  5
B79
100
AcDbEntity
  8
0
  6
CONTINUOUS
100
AcDbVertex
100
AcDbPolygonMeshVertex
 10
0.649519
 20
0.0
 30
-0.375
 70
    64
  0
VERTEX
  5
B7A
100
AcDbEntity
  8
0
  6
CONTINUOUS
100
AcDbVertex
100
AcDbPolygonMeshVertex
 10
0.5625
 20
0.375
 30
-0.32476
 70
    64
  0
VERTEX
  5
B7B
100
AcDbEntity
  8
0
  6
CONTINUOUS
100
AcDbVertex
100
AcDbPolygonMeshVertex
 10
0.32476
 20
0.649519
 30
-0.1875
 70
    64
  0
VERTEX
  5
B7C
100
AcDbEntity
  8
0
  6
CONTINUOUS
100
AcDbVertex
100
AcDbPolygonMeshVertex
 10
0.0
 20
0.75
 30
0.0
 70
    64
  0
VERTEX
  5
B7D
100
AcDbEntity
  8
0
  6
CONTINUOUS
100
AcDbVertex
100
AcDbPolygonMeshVertex
 10
0.0
 20
-0.75
 30
0.0
 70
    64
  0
VERTEX
  5
B7E
100
AcDbEntity
  8
0
  6
CONTINUOUS
100
AcDbVertex
100
AcDbPolygonMeshVertex
 10
0.1875
 20
-0.649519
 30
-0.32476
 70
    64
  0
VERTEX
  5
B7F
100
AcDbEntity
  8
0
  6
CONTINUOUS
100
AcDbVertex
100
AcDbPolygonMeshVertex
 10
0.32476
 20
-0.375
 30
-0.5625
 70
    64
  0
VERTEX
  5
B80
100
AcDbEntity
  8
0
  6
CONTINUOUS
100
AcDbVertex
100
AcDbPolygonMeshVertex
 10
0.375
 20
0.0
 30
-0.649519
 70
    64
  0
VERTEX
  5
B81
100
AcDbEntity
  8
0
  6
CONTINUOUS
100
AcDbVertex
100
AcDbPolygonMeshVertex
 10
0.32476
 20
0.375
 30
-0.5625
 70
    64
  0
VERTEX
  5
B82
100
AcDbEntity
  8
0
  6
CONTINUOUS
100
AcDbVertex
100
AcDbPolygonMeshVertex
 10
0.1875
 20
0.649519
 30
-0.32476
 70
    64
  0
VERTEX
  5
B83
100
AcDbEntity
  8
0
  6
CONTINUOUS
100
AcDbVertex
100
AcDbPolygonMeshVertex
 10
0.0
 20
0.75
 30
0.0
 70
    64
  0
VERTEX
  5
B84
100
AcDbEntity
  8
0
  6
CONTINUOUS
100
AcDbVertex
100
AcDbPolygonMeshVertex
 10
0.0
 20
-0.75
 30
0.0
 70
    64
  0
VERTEX
  5
B85
100
AcDbEntity
  8
0
  6
CONTINUOUS
100
AcDbVertex
100
AcDbPolygonMeshVertex
 10
0.0
 20
-0.649519
 30
-0.375
 70
    64
  0
VERTEX
  5
B86
100
AcDbEntity
  8
0
  6
CONTINUOUS
100
AcDbVertex
100
AcDbPolygonMeshVertex
 10
0.0
 20
-0.375
 30
-0.649519
 70
    64
  0
VERTEX
  5
B87
100
AcDbEntity
  8
0
  6
CONTINUOUS
100
AcDbVertex
100
AcDbPolygonMeshVertex
 10
0.0
 20
0.0
 30
-0.75
 70
    64
  0
VERTEX
  5
B88
100
AcDbEntity
  8
0
  6
CONTINUOUS
100
AcDbVertex
100
AcDbPolygonMeshVertex
 10
0.0
 20
0.375
 30
-0.649519
 70
    64
  0
VERTEX
  5
B89
100
AcDbEntity
  8
0
  6
CONTINUOUS
100
AcDbVertex
100
AcDbPolygonMeshVertex
 10
0.0
 20
0.649519
 30
-0.375
 70
    64
  0
VERTEX
  5
B8A
100
AcDbEntity
  8
0
  6
CONTINUOUS
100
AcDbVertex
100
AcDbPolygonMeshVertex
 10
0.0
 20
0.75
 30
0.0
 70
    64
  0
VERTEX
  5
B8B
100
AcDbEntity
  8
0
  6
CONTINUOUS
100
AcDbVertex
100
AcDbPolygonMeshVertex
 10
0.0
 20
-0.75
 30
0.0
 70
    64
  0
VERTEX
  5
B8C
100
AcDbEntity
  8
0
  6
CONTINUOUS
100
AcDbVertex
100
AcDbPolygonMeshVertex
 10
-0.1875
 20
-0.649519
 30
-0.32476
 70
    64
  0
VERTEX
  5
B8D
100
AcDbEntity
  8
0
  6
CONTINUOUS
100
AcDbVertex
100
AcDbPolygonMeshVertex
 10
-0.32476
 20
-0.375
 30
-0.5625
 70
    64
  0
VERTEX
  5
B8E
100
AcDbEntity
  8
0
  6
CONTINUOUS
100
AcDbVertex
100
AcDbPolygonMeshVertex
 10
-0.375
 20
0.0
 30
-0.649519
 70
    64
  0
VERTEX
  5
B8F
100
AcDbEntity
  8
0
  6
CONTINUOUS
100
AcDbVertex
100
AcDbPolygonMeshVertex
 10
-0.32476
 20
0.375
 30
-0.5625
 70
    64
  0
VERTEX
  5
B90
100
AcDbEntity
  8
0
  6
CONTINUOUS
100
AcDbVertex
100
AcDbPolygonMeshVertex
 10
-0.1875
 20
0.649519
 30
-0.32476
 70
    64
  0
VERTEX
  5
B91
100
AcDbEntity
  8
0
  6
CONTINUOUS
100
AcDbVertex
100
AcDbPolygonMeshVertex
 10
0.0
 20
0.75
 30
0.0
 70
    64
  0
VERTEX
  5
B92
100
AcDbEntity
  8
0
  6
CONTINUOUS
100
AcDbVertex
100
AcDbPolygonMeshVertex
 10
0.0
 20
-0.75
 30
0.0
 70
    64
  0
VERTEX
  5
B93
100
AcDbEntity
  8
0
  6
CONTINUOUS
100
AcDbVertex
100
AcDbPolygonMeshVertex
 10
-0.32476
 20
-0.649519
 30
-0.1875
 70
    64
  0
VERTEX
  5
B94
100
AcDbEntity
  8
0
  6
CONTINUOUS
100
AcDbVertex
100
AcDbPolygonMeshVertex
 10
-0.5625
 20
-0.375
 30
-0.32476
 70
    64
  0
VERTEX
  5
B95
100
AcDbEntity
  8
0
  6
CONTINUOUS
100
AcDbVertex
100
AcDbPolygonMeshVertex
 10
-0.649519
 20
0.0
 30
-0.375
 70
    64
  0
VERTEX
  5
B96
100
AcDbEntity
  8
0
  6
CONTINUOUS
100
AcDbVertex
100
AcDbPolygonMeshVertex
 10
-0.5625
 20
0.375
 30
-0.32476
 70
    64
  0
VERTEX
  5
B97
100
AcDbEntity
  8
0
  6
CONTINUOUS
100
AcDbVertex
100
AcDbPolygonMeshVertex
 10
-0.32476
 20
0.649519
 30
-0.1875
 70
    64
  0
VERTEX
  5
B98
100
AcDbEntity
  8
0
  6
CONTINUOUS
100
AcDbVertex
100
AcDbPolygonMeshVertex
 10
0.0
 20
0.75
 30
0.0
 70
    64
  0
VERTEX
  5
B99
100
AcDbEntity
  8
0
  6
CONTINUOUS
100
AcDbVertex
100
AcDbPolygonMeshVertex
 10
0.0
 20
-0.75
 30
0.0
 70
    64
  0
VERTEX
  5
B9A
100
AcDbEntity
  8
0
  6
CONTINUOUS
100
AcDbVertex
100
AcDbPolygonMeshVertex
 10
-0.375
 20
-0.649519
 30
0.0
 70
    64
  0
VERTEX
  5
B9B
100
AcDbEntity
  8
0
  6
CONTINUOUS
100
AcDbVertex
100
AcDbPolygonMeshVertex
 10
-0.649519
 20
-0.375
 30
0.0
 70
    64
  0
VERTEX
  5
B9C
100
AcDbEntity
  8
0
  6
CONTINUOUS
100
AcDbVertex
100
AcDbPolygonMeshVertex
 10
-0.75
 20
0.0
 30
0.0
 70
    64
  0
VERTEX
  5
B9D
100
AcDbEntity
  8
0
  6
CONTINUOUS
100
AcDbVertex
100
AcDbPolygonMeshVertex
 10
-0.649519
 20
0.375
 30
0.0
 70
    64
  0
VERTEX
  5
B9E
100
AcDbEntity
  8
0
  6
CONTINUOUS
100
AcDbVertex
100
AcDbPolygonMeshVertex
 10
-0.375
 20
0.649519
 30
0.0
 70
    64
  0
VERTEX
  5
B9F
100
AcDbEntity
  8
0
  6
CONTINUOUS
100
AcDbVertex
100
AcDbPolygonMeshVertex
 10
0.0
 20
0.75
 30
0.0
 70
    64
  0
VERTEX
  5
BA0
100
AcDbEntity
  8
0
  6
CONTINUOUS
100
AcDbVertex
100
AcDbPolygonMeshVertex
 10
0.0
 20
-0.75
 30
0.0
 70
    64
  0
VERTEX
  5
BA1
100
AcDbEntity
  8
0
  6
CONTINUOUS
100
AcDbVertex
100
AcDbPolygonMeshVertex
 10
-0.32476
 20
-0.649519
 30
0.1875
 70
    64
  0
VERTEX
  5
BA2
100
AcDbEntity
  8
0
  6
CONTINUOUS
100
AcDbVertex
100
AcDbPolygonMeshVertex
 10
-0.5625
 20
-0.375
 30
0.32476
 70
    64
  0
VERTEX
  5
BA3
100
AcDbEntity
  8
0
  6
CONTINUOUS
100
AcDbVertex
100
AcDbPolygonMeshVertex
 10
-0.649519
 20
0.0
 30
0.375
 70
    64
  0
VERTEX
  5
BA4
100
AcDbEntity
  8
0
  6
CONTINUOUS
100
AcDbVertex
100
AcDbPolygonMeshVertex
 10
-0.5625
 20
0.375
 30
0.32476
 70
    64
  0
VERTEX
  5
BA5
100
AcDbEntity
  8
0
  6
CONTINUOUS
100
AcDbVertex
100
AcDbPolygonMeshVertex
 10
-0.32476
 20
0.649519
 30
0.1875
 70
    64
  0
VERTEX
  5
BA6
100
AcDbEntity
  8
0
  6
CONTINUOUS
100
AcDbVertex
100
AcDbPolygonMeshVertex
 10
0.0
 20
0.75
 30
0.0
 70
    64
  0
VERTEX
  5
BA7
100
AcDbEntity
  8
0
  6
CONTINUOUS
100
AcDbVertex
100
AcDbPolygonMeshVertex
 10
0.0
 20
-0.75
 30
0.0
 70
    64
  0
VERTEX
  5
BA8
100
AcDbEntity
  8
0
  6
CONTINUOUS
100
AcDbVertex
100
AcDbPolygonMeshVertex
 10
-0.1875
 20
-0.649519
 30
0.32476
 70
    64
  0
VERTEX
  5
BA9
100
AcDbEntity
  8
0
  6
CONTINUOUS
100
AcDbVertex
100
AcDbPolygonMeshVertex
 10
-0.32476
 20
-0.375
 30
0.5625
 70
    64
  0
VERTEX
  5
BAA
100
AcDbEntity
  8
0
  6
CONTINUOUS
100
AcDbVertex
100
AcDbPolygonMeshVertex
 10
-0.375
 20
0.0
 30
0.649519
 70
    64
  0
VERTEX
  5
BAB
100
AcDbEntity
  8
0
  6
CONTINUOUS
100
AcDbVertex
100
AcDbPolygonMeshVertex
 10
-0.32476
 20
0.375
 30
0.5625
 70
    64
  0
VERTEX
  5
BAC
100
AcDbEntity
  8
0
  6
CONTINUOUS
100
AcDbVertex
100
AcDbPolygonMeshVertex
 10
-0.1875
 20
0.649519
 30
0.32476
 70
    64
  0
VERTEX
  5
BAD
100
AcDbEntity
  8
0
  6
CONTINUOUS
100
AcDbVertex
100
AcDbPolygonMeshVertex
 10
0.0
 20
0.75
 30
0.0
 70
    64
  0
VERTEX
  5
BAE
100
AcDbEntity
  8
0
  6
CONTINUOUS
100
AcDbVertex
100
AcDbPolygonMeshVertex
 10
0.0
 20
-0.75
 30
0.0
 70
    64
  0
VERTEX
  5
BAF
100
AcDbEntity
  8
0
  6
CONTINUOUS
100
AcDbVertex
100
AcDbPolygonMeshVertex
 10
0.0
 20
-0.649519
 30
0.375
 70
    64
  0
VERTEX
  5
BB0
100
AcDbEntity
  8
0
  6
CONTINUOUS
100
AcDbVertex
100
AcDbPolygonMeshVertex
 10
0.0
 20
-0.375
 30
0.649519
 70
    64
  0
VERTEX
  5
BB1
100
AcDbEntity
  8
0
  6
CONTINUOUS
100
AcDbVertex
100
AcDbPolygonMeshVertex
 10
0.0
 20
0.0
 30
0.75
 70
    64
  0
VERTEX
  5
BB2
100
AcDbEntity
  8
0
  6
CONTINUOUS
100
AcDbVertex
100
AcDbPolygonMeshVertex
 10
0.0
 20
0.375
 30
0.649519
 70
    64
  0
VERTEX
  5
BB3
100
AcDbEntity
  8
0
  6
CONTINUOUS
100
AcDbVertex
100
AcDbPolygonMeshVertex
 10
0.0
 20
0.649519
 30
0.375
 70
    64
  0
VERTEX
  5
BB4
100
AcDbEntity
  8
0
  6
CONTINUOUS
100
AcDbVertex
100
AcDbPolygonMeshVertex
 10
0.0
 20
0.75
 30
0.0
 70
    64
  0
VERTEX
  5
BB5
100
AcDbEntity
  8
0
  6
CONTINUOUS
100
AcDbVertex
100
AcDbPolygonMeshVertex
 10
0.0
 20
-0.75
 30
0.0
 70
    64
  0
VERTEX
  5
BB6
100
AcDbEntity
  8
0
  6
CONTINUOUS
100
AcDbVertex
100
AcDbPolygonMeshVertex
 10
0.1875
 20
-0.649519
 30
0.32476
 70
    64
  0
VERTEX
  5
BB7
100
AcDbEntity
  8
0
  6
CONTINUOUS
100
AcDbVertex
100
AcDbPolygonMeshVertex
 10
0.32476
 20
-0.375
 30
0.5625
 70
    64
  0
VERTEX
  5
BB8
100
AcDbEntity
  8
0
  6
CONTINUOUS
100
AcDbVertex
100
AcDbPolygonMeshVertex
 10
0.375
 20
0.0
 30
0.649519
 70
    64
  0
VERTEX
  5
BB9
100
AcDbEntity
  8
0
  6
CONTINUOUS
100
AcDbVertex
100
AcDbPolygonMeshVertex
 10
0.32476
 20
0.375
 30
0.5625
 70
    64
  0
VERTEX
  5
BBA
100
AcDbEntity
  8
0
  6
CONTINUOUS
100
AcDbVertex
100
AcDbPolygonMeshVertex
 10
0.1875
 20
0.649519
 30
0.32476
 70
    64
  0
VERTEX
  5
BBB
100
AcDbEntity
  8
0
  6
CONTINUOUS
100
AcDbVertex
100
AcDbPolygonMeshVertex
 10
0.0
 20
0.75
 30
0.0
 70
    64
  0
VERTEX
  5
BBC
100
AcDbEntity
  8
0
  6
CONTINUOUS
100
AcDbVertex
100
AcDbPolygonMeshVertex
 10
0.0
 20
-0.75
 30
0.0
 70
    64
  0
VERTEX
  5
BBD
100
AcDbEntity
  8
0
  6
CONTINUOUS
100
AcDbVertex
100
AcDbPolygonMeshVertex
 10
0.32476
 20
-0.649519
 30
0.1875
 70
    64
  0
VERTEX
  5
BBE
100
AcDbEntity
  8
0
  6
CONTINUOUS
100
AcDbVertex
100
AcDbPolygonMeshVertex
 10
0.5625
 20
-0.375
 30
0.32476
 70
    64
  0
VERTEX
  5
BBF
100
AcDbEntity
  8
0
  6
CONTINUOUS
100
AcDbVertex
100
AcDbPolygonMeshVertex
 10
0.649519
 20
0.0
 30
0.375
 70
    64
  0
VERTEX
  5
BC0
100
AcDbEntity
  8
0
  6
CONTINUOUS
100
AcDbVertex
100
AcDbPolygonMeshVertex
 10
0.5625
 20
0.375
 30
0.32476
 70
    64
  0
VERTEX
  5
BC1
100
AcDbEntity
  8
0
  6
CONTINUOUS
100
AcDbVertex
100
AcDbPolygonMeshVertex
 10
0.32476
 20
0.649519
 30
0.1875
 70
    64
  0
VERTEX
  5
BC2
100
AcDbEntity
  8
0
  6
CONTINUOUS
100
AcDbVertex
100
AcDbPolygonMeshVertex
 10
0.0
 20
0.75
 30
0.0
 70
    64
  0
SEQEND
  5
BC3
100
AcDbEntity
  8
0
  6
CONTINUOUS
  0
ATTDEF
  5
BC4
100
AcDbEntity
  8
0
  6
CONTINUOUS
100
AcDbText
 10
-0.46303
 20
-1.176513
 30
0.0
 40
0.1
  1

  7
ROMANS
100
AcDbAttributeDefinition
  3

  2
POS
 70
     1
  0
ATTDEF
  5
BC5
100
AcDbEntity
  8
0
  6
CONTINUOUS
100
AcDbText
 10
-0.022628
 20
-1.208021
 30
0.0
 40
0.1
  1

  7
ROMANS
100
AcDbAttributeDefinition
  3

  2
NAZEV
 70
     1
  0
ATTDEF
  5
BC6
100
AcDbEntity
  8
0
  6
CONTINUOUS
100
AcDbText
 10
0.563946
 20
-1.216953
 30
0.0
 40
0.1
  1

  7
ROMANS
100
AcDbAttributeDefinition
  3

  2
CENA
 70
     1
  0
ATTDEF
  5
BC7
100
AcDbEntity
  8
0
  6
CONTINUOUS
100
AcDbText
 10
1.110951
 20
-1.231746
 30
0.0
 40
0.1
  1

  7
ROMANS
100
AcDbAttributeDefinition
  3

  2
PROCENT_MO
 70
     1
  0
ENDBLK
  5
BC9
100
AcDbEntity
  8
0
100
AcDbBlockEnd
  0
BLOCK
  5
C2B
100
AcDbEntity
  8
0
100
AcDbBlockBegin
  2
ZNAKE
 70
     2
 10
0.0
 20
0.0
 30
0.0
  3
ZNAKE
  1

  0
POLYLINE
  5
BD1
100
AcDbEntity
  8
0
  6
CONTINUOUS
100
AcDbPolygonMesh
 66
     1
 10
0.0
 20
0.0
 30
0.0
 70
    17
 71
    12
 72
     7
  0
VERTEX
  5
BD2
100
AcDbEntity
  8
0
  6
CONTINUOUS
100
AcDbVertex
100
AcDbPolygonMeshVertex
 10
-0.179903
 20
-0.54143
 30
0.881112
 70
    64
  0
VERTEX
  5
BD3
100
AcDbEntity
  8
0
  6
CONTINUOUS
100
AcDbVertex
100
AcDbPolygonMeshVertex
 10
0.121143
 20
-0.683803
 30
1.080668
 70
    64
  0
VERTEX
  5
BD4
100
AcDbEntity
  8
0
  6
CONTINUOUS
100
AcDbVertex
100
AcDbPolygonMeshVertex
 10
0.504426
 20
-0.719679
 30
1.130954
 70
    64
  0
VERTEX
  5
BD5
100
AcDbEntity
  8
0
  6
CONTINUOUS
100
AcDbVertex
100
AcDbPolygonMeshVertex
 10
0.867245
 20
-0.639447
 30
1.018497
 70
    64
  0
VERTEX
  5
BD6
100
AcDbEntity
  8
0
  6
CONTINUOUS
100
AcDbVertex
100
AcDbPolygonMeshVertex
 10
1.112382
 20
-0.464603
 30
0.773428
 70
    64
  0
VERTEX
  5
BD7
100
AcDbEntity
  8
0
  6
CONTINUOUS
100
AcDbVertex
100
AcDbPolygonMeshVertex
 10
1.174155
 20
-0.241998
 30
0.461414
 70
    64
  0
VERTEX
  5
BD8
100
AcDbEntity
  8
0
  6
CONTINUOUS
100
AcDbVertex
100
AcDbPolygonMeshVertex
 10
1.03601
 20
-0.031278
 30
0.16606
 70
    64
  0
VERTEX
  5
BD9
100
AcDbEntity
  8
0
  6
CONTINUOUS
100
AcDbVertex
100
AcDbPolygonMeshVertex
 10
-0.179903
 20
-0.54143
 30
0.881112
 70
    64
  0
VERTEX
  5
BDA
100
AcDbEntity
  8
0
  6
CONTINUOUS
100
AcDbVertex
100
AcDbPolygonMeshVertex
 10
0.091723
 20
-0.812786
 30
0.938618
 70
    64
  0
VERTEX
  5
BDB
100
AcDbEntity
  8
0
  6
CONTINUOUS
100
AcDbVertex
100
AcDbPolygonMeshVertex
 10
0.453469
 20
-0.943084
 30
0.884916
 70
    64
  0
VERTEX
  5
BDC
100
AcDbEntity
  8
0
  6
CONTINUOUS
100
AcDbVertex
100
AcDbPolygonMeshVertex
 10
0.808404
 20
-0.897412
 30
0.734396
 70
    64
  0
VERTEX
  5
BDD
100
AcDbEntity
  8
0
  6
CONTINUOUS
100
AcDbVertex
100
AcDbPolygonMeshVertex
 10
1.061425
 20
-0.688008
 30
0.52739
 70
    64
  0
VERTEX
  5
BDE
100
AcDbEntity
  8
0
  6
CONTINUOUS
100
AcDbVertex
100
AcDbPolygonMeshVertex
 10
1.144735
 20
-0.370981
 30
0.319364
 70
    64
  0
VERTEX
  5
BDF
100
AcDbEntity
  8
0
  6
CONTINUOUS
100
AcDbVertex
100
AcDbPolygonMeshVertex
 10
1.03601
 20
-0.031278
 30
0.16606
 70
    64
  0
VERTEX
  5
BE0
100
AcDbEntity
  8
0
  6
CONTINUOUS
100
AcDbVertex
100
AcDbPolygonMeshVertex
 10
-0.179903
 20
-0.54143
 30
0.881112
 70
    64
  0
VERTEX
  5
BE1
100
AcDbEntity
  8
0
  6
CONTINUOUS
100
AcDbVertex
100
AcDbPolygonMeshVertex
 10
0.011345
 20
-0.859902
 30
0.768325
 70
    64
  0
VERTEX
  5
BE2
100
AcDbEntity
  8
0
  6
CONTINUOUS
100
AcDbVertex
100
AcDbPolygonMeshVertex
 10
0.314251
 20
-1.024692
 30
0.589959
 70
    64
  0
VERTEX
  5
BE3
100
AcDbEntity
  8
0
  6
CONTINUOUS
100
AcDbVertex
100
AcDbPolygonMeshVertex
 10
0.647649
 20
-0.991645
 30
0.39381
 70
    64
  0
VERTEX
  5
BE4
100
AcDbEntity
  8
0
  6
CONTINUOUS
100
AcDbVertex
100
AcDbPolygonMeshVertex
 10
0.922207
 20
-0.769616
 30
0.232433
 70
    64
  0
VERTEX
  5
BE5
100
AcDbEntity
  8
0
  6
CONTINUOUS
100
AcDbVertex
100
AcDbPolygonMeshVertex
 10
1.064357
 20
-0.418097
 30
0.149071
 70
    64
  0
VERTEX
  5
BE6
100
AcDbEntity
  8
0
  6
CONTINUOUS
100
AcDbVertex
100
AcDbPolygonMeshVertex
 10
1.03601
 20
-0.031278
 30
0.16606
 70
    64
  0
VERTEX
  5
BE7
100
AcDbEntity
  8
0
  6
CONTINUOUS
100
AcDbVertex
100
AcDbPolygonMeshVertex
 10
-0.179903
 20
-0.54143
 30
0.881112
 70
    64
  0
VERTEX
  5
BE8
100
AcDbEntity
  8
0
  6
CONTINUOUS
100
AcDbVertex
100
AcDbPolygonMeshVertex
 10
-0.098452
 20
-0.812528
 30
0.615418
 70
    64
  0
VERTEX
  5
BE9
100
AcDbEntity
  8
0
  6
CONTINUOUS
100
AcDbVertex
100
AcDbPolygonMeshVertex
 10
0.124075
 20
-0.942637
 30
0.325117
 70
    64
  0
VERTEX
  5
BEA
100
AcDbEntity
  8
0
  6
CONTINUOUS
100
AcDbVertex
100
AcDbPolygonMeshVertex
 10
0.428053
 20
-0.896896
 30
0.087996
 70
    64
  0
VERTEX
  5
BEB
100
AcDbEntity
  8
0
  6
CONTINUOUS
100
AcDbVertex
100
AcDbPolygonMeshVertex
 10
0.732032
 20
-0.687561
 30
-0.032409
 70
    64
  0
VERTEX
  5
BEC
100
AcDbEntity
  8
0
  6
CONTINUOUS
100
AcDbVertex
100
AcDbPolygonMeshVertex
 10
0.954559
 20
-0.370723
 30
-0.003836
 70
    64
  0
VERTEX
  5
BED
100
AcDbEntity
  8
0
  6
CONTINUOUS
100
AcDbVertex
100
AcDbPolygonMeshVertex
 10
1.03601
 20
-0.031278
 30
0.16606
 70
    64
  0
VERTEX
  5
BEE
100
AcDbEntity
  8
0
  6
CONTINUOUS
100
AcDbVertex
100
AcDbPolygonMeshVertex
 10
-0.179903
 20
-0.54143
 30
0.881112
 70
    64
  0
VERTEX
  5
BEF
100
AcDbEntity
  8
0
  6
CONTINUOUS
100
AcDbVertex
100
AcDbPolygonMeshVertex
 10
-0.20825
 20
-0.683356
 30
0.520869
 70
    64
  0
VERTEX
  5
BF0
100
AcDbEntity
  8
0
  6
CONTINUOUS
100
AcDbVertex
100
AcDbPolygonMeshVertex
 10
-0.0661
 20
-0.718905
 30
0.161354
 70
    64
  0
VERTEX
  5
BF1
100
AcDbEntity
  8
0
  6
CONTINUOUS
100
AcDbVertex
100
AcDbPolygonMeshVertex
 10
0.208458
 20
-0.638553
 30
-0.101101
 70
    64
  0
VERTEX
  5
BF2
100
AcDbEntity
  8
0
  6
CONTINUOUS
100
AcDbVertex
100
AcDbPolygonMeshVertex
 10
0.541856
 20
-0.463829
 30
-0.196172
 70
    64
  0
VERTEX
  5
BF3
100
AcDbEntity
  8
0
  6
CONTINUOUS
100
AcDbVertex
100
AcDbPolygonMeshVertex
 10
0.844761
 20
-0.241551
 30
-0.098385
 70
    64
  0
VERTEX
  5
BF4
100
AcDbEntity
  8
0
  6
CONTINUOUS
100
AcDbVertex
100
AcDbPolygonMeshVertex
 10
1.03601
 20
-0.031278
 30
0.16606
 70
    64
  0
VERTEX
  5
BF5
100
AcDbEntity
  8
0
  6
CONTINUOUS
100
AcDbVertex
100
AcDbPolygonMeshVertex
 10
-0.179903
 20
-0.54143
 30
0.881112
 70
    64
  0
VERTEX
  5
BF6
100
AcDbEntity
  8
0
  6
CONTINUOUS
100
AcDbVertex
100
AcDbPolygonMeshVertex
 10
-0.288628
 20
-0.506998
 30
0.510013
 70
    64
  0
VERTEX
  5
BF7
100
AcDbEntity
  8
0
  6
CONTINUOUS
100
AcDbVertex
100
AcDbPolygonMeshVertex
 10
-0.205318
 20
-0.413445
 30
0.14255
 70
    64
  0
VERTEX
  5
BF8
100
AcDbEntity
  8
0
  6
CONTINUOUS
100
AcDbVertex
100
AcDbPolygonMeshVertex
 10
0.047703
 20
-0.285838
 30
-0.122814
 70
    64
  0
VERTEX
  5
BF9
100
AcDbEntity
  8
0
  6
CONTINUOUS
100
AcDbVertex
100
AcDbPolygonMeshVertex
 10
0.402638
 20
-0.158369
 30
-0.214976
 70
    64
  0
VERTEX
  5
BFA
100
AcDbEntity
  8
0
  6
CONTINUOUS
100
AcDbVertex
100
AcDbPolygonMeshVertex
 10
0.764384
 20
-0.065194
 30
-0.109241
 70
    64
  0
VERTEX
  5
BFB
100
AcDbEntity
  8
0
  6
CONTINUOUS
100
AcDbVertex
100
AcDbPolygonMeshVertex
 10
1.03601
 20
-0.031278
 30
0.16606
 70
    64
  0
VERTEX
  5
BFC
100
AcDbEntity
  8
0
  6
CONTINUOUS
100
AcDbVertex
100
AcDbPolygonMeshVertex
 10
-0.179903
 20
-0.54143
 30
0.881112
 70
    64
  0
VERTEX
  5
BFD
100
AcDbEntity
  8
0
  6
CONTINUOUS
100
AcDbVertex
100
AcDbPolygonMeshVertex
 10
-0.318048
 20
-0.33071
 30
0.585757
 70
    64
  0
VERTEX
  5
BFE
100
AcDbEntity
  8
0
  6
CONTINUOUS
100
AcDbVertex
100
AcDbPolygonMeshVertex
 10
-0.256276
 20
-0.108105
 30
0.273744
 70
    64
  0
VERTEX
  5
BFF
100
AcDbEntity
  8
0
  6
CONTINUOUS
100
AcDbVertex
100
AcDbPolygonMeshVertex
 10
-0.011138
 20
0.066739
 30
0.028675
 70
    64
  0
VERTEX
  5
C00
100
AcDbEntity
  8
0
  6
CONTINUOUS
100
AcDbVertex
100
AcDbPolygonMeshVertex
 10
0.351681
 20
0.146971
 30
-0.083783
 70
    64
  0
VERTEX
  5
C01
100
AcDbEntity
  8
0
  6
CONTINUOUS
100
AcDbVertex
100
AcDbPolygonMeshVertex
 10
0.734964
 20
0.111095
 30
-0.033496
 70
    64
  0
VERTEX
  5
C02
100
AcDbEntity
  8
0
  6
CONTINUOUS
100
AcDbVertex
100
AcDbPolygonMeshVertex
 10
1.03601
 20
-0.031278
 30
0.16606
 70
    64
  0
VERTEX
  5
C03
100
AcDbEntity
  8
0
  6
CONTINUOUS
100
AcDbVertex
100
AcDbPolygonMeshVertex
 10
-0.179903
 20
-0.54143
 30
0.881112
 70
    64
  0
VERTEX
  5
C04
100
AcDbEntity
  8
0
  6
CONTINUOUS
100
AcDbVertex
100
AcDbPolygonMeshVertex
 10
-0.288628
 20
-0.201727
 30
0.727808
 70
    64
  0
VERTEX
  5
C05
100
AcDbEntity
  8
0
  6
CONTINUOUS
100
AcDbVertex
100
AcDbPolygonMeshVertex
 10
-0.205318
 20
0.1153
 30
0.519782
 70
    64
  0
VERTEX
  5
C06
100
AcDbEntity
  8
0
  6
CONTINUOUS
100
AcDbVertex
100
AcDbPolygonMeshVertex
 10
0.047703
 20
0.324704
 30
0.312775
 70
    64
  0
VERTEX
  5
C07
100
AcDbEntity
  8
0
  6
CONTINUOUS
100
AcDbVertex
100
AcDbPolygonMeshVertex
 10
0.402638
 20
0.370376
 30
0.162256
 70
    64
  0
VERTEX
  5
C08
100
AcDbEntity
  8
0
  6
CONTINUOUS
100
AcDbVertex
100
AcDbPolygonMeshVertex
 10
0.764384
 20
0.240077
 30
0.108554
 70
    64
  0
VERTEX
  5
C09
100
AcDbEntity
  8
0
  6
CONTINUOUS
100
AcDbVertex
100
AcDbPolygonMeshVertex
 10
1.03601
 20
-0.031278
 30
0.16606
 70
    64
  0
VERTEX
  5
C0A
100
AcDbEntity
  8
0
  6
CONTINUOUS
100
AcDbVertex
100
AcDbPolygonMeshVertex
 10
-0.179903
 20
-0.54143
 30
0.881112
 70
    64
  0
VERTEX
  5
C0B
100
AcDbEntity
  8
0
  6
CONTINUOUS
100
AcDbVertex
100
AcDbPolygonMeshVertex
 10
-0.20825
 20
-0.154611
 30
0.898101
 70
    64
  0
VERTEX
  5
C0C
100
AcDbEntity
  8
0
  6
CONTINUOUS
100
AcDbVertex
100
AcDbPolygonMeshVertex
 10
-0.0661
 20
0.196908
 30
0.814739
 70
    64
  0
VERTEX
  5
C0D
100
AcDbEntity
  8
0
  6
CONTINUOUS
100
AcDbVertex
100
AcDbPolygonMeshVertex
 10
0.208458
 20
0.418937
 30
0.653362
 70
    64
  0
VERTEX
  5
C0E
100
AcDbEntity
  8
0
  6
CONTINUOUS
100
AcDbVertex
100
AcDbPolygonMeshVertex
 10
0.541856
 20
0.451984
 30
0.457212
 70
    64
  0
VERTEX
  5
C0F
100
AcDbEntity
  8
0
  6
CONTINUOUS
100
AcDbVertex
100
AcDbPolygonMeshVertex
 10
0.844761
 20
0.287194
 30
0.278847
 70
    64
  0
VERTEX
  5
C10
100
AcDbEntity
  8
0
  6
CONTINUOUS
100
AcDbVertex
100
AcDbPolygonMeshVertex
 10
1.03601
 20
-0.031278
 30
0.16606
 70
    64
  0
VERTEX
  5
C11
100
AcDbEntity
  8
0
  6
CONTINUOUS
100
AcDbVertex
100
AcDbPolygonMeshVertex
 10
-0.179903
 20
-0.54143
 30
0.881112
 70
    64
  0
VERTEX
  5
C12
100
AcDbEntity
  8
0
  6
CONTINUOUS
100
AcDbVertex
100
AcDbPolygonMeshVertex
 10
-0.098452
 20
-0.201986
 30
1.051008
 70
    64
  0
VERTEX
  5
C13
100
AcDbEntity
  8
0
  6
CONTINUOUS
100
AcDbVertex
100
AcDbPolygonMeshVertex
 10
0.124075
 20
0.114853
 30
1.079581
 70
    64
  0
VERTEX
  5
C14
100
AcDbEntity
  8
0
  6
CONTINUOUS
100
AcDbVertex
100
AcDbPolygonMeshVertex
 10
0.428053
 20
0.324188
 30
0.959176
 70
    64
  0
VERTEX
  5
C15
100
AcDbEntity
  8
0
  6
CONTINUOUS
100
AcDbVertex
100
AcDbPolygonMeshVertex
 10
0.732032
 20
0.369929
 30
0.722054
 70
    64
  0
VERTEX
  5
C16
100
AcDbEntity
  8
0
  6
CONTINUOUS
100
AcDbVertex
100
AcDbPolygonMeshVertex
 10
0.954559
 20
0.239819
 30
0.431754
 70
    64
  0
VERTEX
  5
C17
100
AcDbEntity
  8
0
  6
CONTINUOUS
100
AcDbVertex
100
AcDbPolygonMeshVertex
 10
1.03601
 20
-0.031278
 30
0.16606
 70
    64
  0
VERTEX
  5
C18
100
AcDbEntity
  8
0
  6
CONTINUOUS
100
AcDbVertex
100
AcDbPolygonMeshVertex
 10
-0.179903
 20
-0.54143
 30
0.881112
 70
    64
  0
VERTEX
  5
C19
100
AcDbEntity
  8
0
  6
CONTINUOUS
100
AcDbVertex
100
AcDbPolygonMeshVertex
 10
0.011345
 20
-0.331157
 30
1.145556
 70
    64
  0
VERTEX
  5
C1A
100
AcDbEntity
  8
0
  6
CONTINUOUS
100
AcDbVertex
100
AcDbPolygonMeshVertex
 10
0.314251
 20
-0.108879
 30
1.243344
 70
    64
  0
VERTEX
  5
C1B
100
AcDbEntity
  8
0
  6
CONTINUOUS
100
AcDbVertex
100
AcDbPolygonMeshVertex
 10
0.647649
 20
0.065844
 30
1.148273
 70
    64
  0
VERTEX
  5
C1C
100
AcDbEntity
  8
0
  6
CONTINUOUS
100
AcDbVertex
100
AcDbPolygonMeshVertex
 10
0.922207
 20
0.146197
 30
0.885818
 70
    64
  0
VERTEX
  5
C1D
100
AcDbEntity
  8
0
  6
CONTINUOUS
100
AcDbVertex
100
AcDbPolygonMeshVertex
 10
1.064357
 20
0.110648
 30
0.526303
 70
    64
  0
VERTEX
  5
C1E
100
AcDbEntity
  8
0
  6
CONTINUOUS
100
AcDbVertex
100
AcDbPolygonMeshVertex
 10
1.03601
 20
-0.031278
 30
0.16606
 70
    64
  0
VERTEX
  5
C1F
100
AcDbEntity
  8
0
  6
CONTINUOUS
100
AcDbVertex
100
AcDbPolygonMeshVertex
 10
-0.179903
 20
-0.54143
 30
0.881112
 70
    64
  0
VERTEX
  5
C20
100
AcDbEntity
  8
0
  6
CONTINUOUS
100
AcDbVertex
100
AcDbPolygonMeshVertex
 10
0.091723
 20
-0.507515
 30
1.156413
 70
    64
  0
VERTEX
  5
C21
100
AcDbEntity
  8
0
  6
CONTINUOUS
100
AcDbVertex
100
AcDbPolygonMeshVertex
 10
0.453469
 20
-0.414339
 30
1.262148
 70
    64
  0
VERTEX
  5
C22
100
AcDbEntity
  8
0
  6
CONTINUOUS
100
AcDbVertex
100
AcDbPolygonMeshVertex
 10
0.808404
 20
-0.28687
 30
1.169986
 70
    64
  0
VERTEX
  5
C23
100
AcDbEntity
  8
0
  6
CONTINUOUS
100
AcDbVertex
100
AcDbPolygonMeshVertex
 10
1.061425
 20
-0.159263
 30
0.904622
 70
    64
  0
VERTEX
  5
C24
100
AcDbEntity
  8
0
  6
CONTINUOUS
100
AcDbVertex
100
AcDbPolygonMeshVertex
 10
1.144735
 20
-0.06571
 30
0.537159
 70
    64
  0
VERTEX
  5
C25
100
AcDbEntity
  8
0
  6
CONTINUOUS
100
AcDbVertex
100
AcDbPolygonMeshVertex
 10
1.03601
 20
-0.031278
 30
0.16606
 70
    64
  0
SEQEND
  5
C26
100
AcDbEntity
  8
0
  6
CONTINUOUS
  0
ATTDEF
  5
C27
100
AcDbEntity
  8
0
  6
CONTINUOUS
 62
     1
100
AcDbText
 10
-0.565407
 20
0.331772
 30
-0.001634
 40
0.05
  1

  7
ROMANS
100
AcDbAttributeDefinition
  3

  2
VETA
 70
     1
  0
ATTDEF
  5
C28
100
AcDbEntity
  8
0
  6
CONTINUOUS
 62
     1
100
AcDbText
 10
-0.350202
 20
-0.105806
 30
-0.001634
 40
0.05
  1

  7
ROMANS
100
AcDbAttributeDefinition
  3

  2
POS
 70
     1
  0
ATTDEF
  5
C29
100
AcDbEntity
  8
0
  6
CONTINUOUS
 62
     1
100
AcDbText
 10
-0.046088
 20
0.299179
 30
-0.001634
 40
0.05
  1

  7
ROMANS
100
AcDbAttributeDefinition
  3

  2
NAZEV
 70
     1
  0
ATTDEF
  5
C2A
100
AcDbEntity
  8
0
  6
CONTINUOUS
 62
     1
100
AcDbText
 10
0.157126
 20
-0.12302
 30
-0.001634
 40
0.05
  1

  7
ROMANS
100
AcDbAttributeDefinition
  3

  2
TYP
 70
     1
  0
ENDBLK
  5
C2C
100
AcDbEntity
  8
0
100
AcDbBlockEnd
  0
BLOCK
  5
C3B
100
AcDbEntity
  8
0
100
AcDbBlockBegin
  2
ELE-560-3D_7
 70
     2
 10
0.0
 20
0.0
 30
0.0
  3
ELE-560-3D_7
  1

  0
SOLID
  5
C3C
100
AcDbEntity
  8
VZ1
  6
CONTINUOUS
100
AcDbTrace
 10
-411.5
 20
-411.5
 30
0.0
 11
411.5
 21
-411.5
 31
0.0
 12
-411.5
 22
411.5
 32
0.0
 13
411.5
 23
411.5
 33
0.0
  0
ATTDEF
  5
C3D
100
AcDbEntity
  8
VZ1
  6
CONTINUOUS
100
AcDbText
 10
0.0
 20
0.0
 30
0.0
 40
1.0
  1
51199
 41
0.8
  7
ROMANS
100
AcDbAttributeDefinition
  3

  2
VETA
 70
     1
  0
ATTDEF
  5
C3E
100
AcDbEntity
  8
VZ1
  6
CONTINUOUS
100
AcDbText
 10
0.0
 20
0.0
 30
0.0
 40
1.0
  1

 41
0.8
  7
ROMANS
100
AcDbAttributeDefinition
  3

  2
POS
 70
     1
  0
ATTDEF
  5
C3F
100
AcDbEntity
  8
VZ1
  6
CONTINUOUS
100
AcDbText
 10
0.0
 20
0.0
 30
0.0
 40
1.0
  1

 41
0.8
  7
ROMANS
100
AcDbAttributeDefinition
  3

  2
NAZEV
 70
     1
  0
ATTDEF
  5
C40
100
AcDbEntity
  8
VZ1
  6
CONTINUOUS
100
AcDbText
 10
0.0
 20
0.0
 30
0.0
 40
1.0
  1
REDUKCE 02/124
 41
0.8
  7
ROMANS
100
AcDbAttributeDefinition
  3

  2
TYP
 70
     1
  0
ENDBLK
  5
C41
100
AcDbEntity
  8
0
100
AcDbBlockEnd
  0
BLOCK
  5
C95
100
AcDbEntity
  8
0
100
AcDbBlockBegin
  2
VE202
 70
     2
 10
0.0
 20
0.0
 30
0.0
  3
VE202
  1

  0
POLYLINE
  5
C58
100
AcDbEntity
  8
0
  6
CONTINUOUS
 62
     7
100
AcDbPolygonMesh
 66
     1
 10
0.0
 20
0.0
 30
0.0
 70
    48
 71
     2
 72
    12
  0
VERTEX
  5
C59
100
AcDbEntity
  8
0
  6
CONTINUOUS
 62
     7
100
AcDbVertex
100
AcDbPolygonMeshVertex
 10
0.7
 20
0.0
 30
0.3
 70
    64
  0
VERTEX
  5
C5A
100
AcDbEntity
  8
0
  6
CONTINUOUS
 62
     7
100
AcDbVertex
100
AcDbPolygonMeshVertex
 10
0.606218
 20
0.35
 30
0.3
 70
    64
  0
VERTEX
  5
C5B
100
AcDbEntity
  8
0
  6
CONTINUOUS
 62
     7
100
AcDbVertex
100
AcDbPolygonMeshVertex
 10
0.35
 20
0.606218
 30
0.3
 70
    64
  0
VERTEX
  5
C5C
100
AcDbEntity
  8
0
  6
CONTINUOUS
 62
     7
100
AcDbVertex
100
AcDbPolygonMeshVertex
 10
0.0
 20
0.7
 30
0.3
 70
    64
  0
VERTEX
  5
C5D
100
AcDbEntity
  8
0
  6
CONTINUOUS
 62
     7
100
AcDbVertex
100
AcDbPolygonMeshVertex
 10
-0.35
 20
0.606218
 30
0.3
 70
    64
  0
VERTEX
  5
C5E
100
AcDbEntity
  8
0
  6
CONTINUOUS
 62
     7
100
AcDbVertex
100
AcDbPolygonMeshVertex
 10
-0.606218
 20
0.35
 30
0.3
 70
    64
  0
VERTEX
  5
C5F
100
AcDbEntity
  8
0
  6
CONTINUOUS
 62
     7
100
AcDbVertex
100
AcDbPolygonMeshVertex
 10
-0.7
 20
0.0
 30
0.3
 70
    64
  0
VERTEX
  5
C60
100
AcDbEntity
  8
0
  6
CONTINUOUS
 62
     7
100
AcDbVertex
100
AcDbPolygonMeshVertex
 10
-0.606218
 20
-0.35
 30
0.3
 70
    64
  0
VERTEX
  5
C61
100
AcDbEntity
  8
0
  6
CONTINUOUS
 62
     7
100
AcDbVertex
100
AcDbPolygonMeshVertex
 10
-0.35
 20
-0.606218
 30
0.3
 70
    64
  0
VERTEX
  5
C62
100
AcDbEntity
  8
0
  6
CONTINUOUS
 62
     7
100
AcDbVertex
100
AcDbPolygonMeshVertex
 10
0.0
 20
-0.7
 30
0.3
 70
    64
  0
VERTEX
  5
C63
100
AcDbEntity
  8
0
  6
CONTINUOUS
 62
     7
100
AcDbVertex
100
AcDbPolygonMeshVertex
 10
0.35
 20
-0.606218
 30
0.3
 70
    64
  0
VERTEX
  5
C64
100
AcDbEntity
  8
0
  6
CONTINUOUS
 62
     7
100
AcDbVertex
100
AcDbPolygonMeshVertex
 10
0.606218
 20
-0.35
 30
0.3
 70
    64
  0
VERTEX
  5
C65
100
AcDbEntity
  8
0
  6
CONTINUOUS
 62
     7
100
AcDbVertex
100
AcDbPolygonMeshVertex
 10
0.5
 20
0.0
 30
0.0
 70
    64
  0
VERTEX
  5
C66
100
AcDbEntity
  8
0
  6
CONTINUOUS
 62
     7
100
AcDbVertex
100
AcDbPolygonMeshVertex
 10
0.433013
 20
0.25
 30
0.0
 70
    64
  0
VERTEX
  5
C67
100
AcDbEntity
  8
0
  6
CONTINUOUS
 62
     7
100
AcDbVertex
100
AcDbPolygonMeshVertex
 10
0.25
 20
0.433013
 30
0.0
 70
    64
  0
VERTEX
  5
C68
100
AcDbEntity
  8
0
  6
CONTINUOUS
 62
     7
100
AcDbVertex
100
AcDbPolygonMeshVertex
 10
0.0
 20
0.5
 30
0.0
 70
    64
  0
VERTEX
  5
C69
100
AcDbEntity
  8
0
  6
CONTINUOUS
 62
     7
100
AcDbVertex
100
AcDbPolygonMeshVertex
 10
-0.25
 20
0.433013
 30
0.0
 70
    64
  0
VERTEX
  5
C6A
100
AcDbEntity
  8
0
  6
CONTINUOUS
 62
     7
100
AcDbVertex
100
AcDbPolygonMeshVertex
 10
-0.433013
 20
0.25
 30
0.0
 70
    64
  0
VERTEX
  5
C6B
100
AcDbEntity
  8
0
  6
CONTINUOUS
 62
     7
100
AcDbVertex
100
AcDbPolygonMeshVertex
 10
-0.5
 20
0.0
 30
0.0
 70
    64
  0
VERTEX
  5
C6C
100
AcDbEntity
  8
0
  6
CONTINUOUS
 62
     7
100
AcDbVertex
100
AcDbPolygonMeshVertex
 10
-0.433013
 20
-0.25
 30
0.0
 70
    64
  0
VERTEX
  5
C6D
100
AcDbEntity
  8
0
  6
CONTINUOUS
 62
     7
100
AcDbVertex
100
AcDbPolygonMeshVertex
 10
-0.25
 20
-0.433013
 30
0.0
 70
    64
  0
VERTEX
  5
C6E
100
AcDbEntity
  8
0
  6
CONTINUOUS
 62
     7
100
AcDbVertex
100
AcDbPolygonMeshVertex
 10
0.0
 20
-0.5
 30
0.0
 70
    64
  0
VERTEX
  5
C6F
100
AcDbEntity
  8
0
  6
CONTINUOUS
 62
     7
100
AcDbVertex
100
AcDbPolygonMeshVertex
 10
0.25
 20
-0.433013
 30
0.0
 70
    64
  0
VERTEX
  5
C70
100
AcDbEntity
  8
0
  6
CONTINUOUS
 62
     7
100
AcDbVertex
100
AcDbPolygonMeshVertex
 10
0.433013
 20
-0.25
 30
0.0
 70
    64
  0
SEQEND
  5
C71
100
AcDbEntity
  8
0
  6
CONTINUOUS
 62
     7
  0
CIRCLE
  5
C72
100
AcDbEntity
  8
0
  6
CONTINUOUS
100
AcDbCircle
 10
0.0
 20
0.0
 30
0.0
 40
0.5
  0
CIRCLE
  5
C73
100
AcDbEntity
  8
0
  6
CONTINUOUS
 62
     7
100
AcDbCircle
 10
0.0
 20
0.0
 30
0.0
 40
0.5
  0
CIRCLE
  5
C74
100
AcDbEntity
  8
0
  6
CONTINUOUS
100
AcDbCircle
 10
0.0
 20
0.0
 30
0.29
 40
1.0
  0
CIRCLE
  5
C75
100
AcDbEntity
  8
0
  6
CONTINUOUS
100
AcDbCircle
 10
0.0
 20
0.0
 30
1.0
 40
1.0
  0
POLYLINE
  5
C76
100
AcDbEntity
  8
0
  6
CONTINUOUS
 62
     7
100
AcDbPolygonMesh
 66
     1
 10
0.0
 20
0.0
 30
0.0
 70
    48
 71
     2
 72
    12
  0
VERTEX
  5
C77
100
AcDbEntity
  8
0
  6
CONTINUOUS
 62
     7
100
AcDbVertex
100
AcDbPolygonMeshVertex
 10
1.0
 20
0.0
 30
0.29
 70
    64
  0
VERTEX
  5
C78
100
AcDbEntity
  8
0
  6
CONTINUOUS
 62
     7
100
AcDbVertex
100
AcDbPolygonMeshVertex
 10
0.866025
 20
0.5
 30
0.29
 70
    64
  0
VERTEX
  5
C79
100
AcDbEntity
  8
0
  6
CONTINUOUS
 62
     7
100
AcDbVertex
100
AcDbPolygonMeshVertex
 10
0.5
 20
0.866025
 30
0.29
 70
    64
  0
VERTEX
  5
C7A
100
AcDbEntity
  8
0
  6
CONTINUOUS
 62
     7
100
AcDbVertex
100
AcDbPolygonMeshVertex
 10
0.0
 20
1.0
 30
0.29
 70
    64
  0
VERTEX
  5
C7B
100
AcDbEntity
  8
0
  6
CONTINUOUS
 62
     7
100
AcDbVertex
100
AcDbPolygonMeshVertex
 10
-0.5
 20
0.866025
 30
0.29
 70
    64
  0
VERTEX
  5
C7C
100
AcDbEntity
  8
0
  6
CONTINUOUS
 62
     7
100
AcDbVertex
100
AcDbPolygonMeshVertex
 10
-0.866025
 20
0.5
 30
0.29
 70
    64
  0
VERTEX
  5
C7D
100
AcDbEntity
  8
0
  6
CONTINUOUS
 62
     7
100
AcDbVertex
100
AcDbPolygonMeshVertex
 10
-1.0
 20
0.0
 30
0.29
 70
    64
  0
VERTEX
  5
C7E
100
AcDbEntity
  8
0
  6
CONTINUOUS
 62
     7
100
AcDbVertex
100
AcDbPolygonMeshVertex
 10
-0.866025
 20
-0.5
 30
0.29
 70
    64
  0
VERTEX
  5
C7F
100
AcDbEntity
  8
0
  6
CONTINUOUS
 62
     7
100
AcDbVertex
100
AcDbPolygonMeshVertex
 10
-0.5
 20
-0.866025
 30
0.29
 70
    64
  0
VERTEX
  5
C80
100
AcDbEntity
  8
0
  6
CONTINUOUS
 62
     7
100
AcDbVertex
100
AcDbPolygonMeshVertex
 10
0.0
 20
-1.0
 30
0.29
 70
    64
  0
VERTEX
  5
C81
100
AcDbEntity
  8
0
  6
CONTINUOUS
 62
     7
100
AcDbVertex
100
AcDbPolygonMeshVertex
 10
0.5
 20
-0.866025
 30
0.29
 70
    64
  0
VERTEX
  5
C82
100
AcDbEntity
  8
0
  6
CONTINUOUS
 62
     7
100
AcDbVertex
100
AcDbPolygonMeshVertex
 10
0.866025
 20
-0.5
 30
0.29
 70
    64
  0
VERTEX
  5
C83
100
AcDbEntity
  8
0
  6
CONTINUOUS
 62
     7
100
AcDbVertex
100
AcDbPolygonMeshVertex
 10
1.0
 20
0.0
 30
1.0
 70
    64
  0
VERTEX
  5
C84
100
AcDbEntity
  8
0
  6
CONTINUOUS
 62
     7
100
AcDbVertex
100
AcDbPolygonMeshVertex
 10
0.866025
 20
0.5
 30
1.0
 70
    64
  0
VERTEX
  5
C85
100
AcDbEntity
  8
0
  6
CONTINUOUS
 62
     7
100
AcDbVertex
100
AcDbPolygonMeshVertex
 10
0.5
 20
0.866025
 30
1.0
 70
    64
  0
VERTEX
  5
C86
100
AcDbEntity
  8
0
  6
CONTINUOUS
 62
     7
100
AcDbVertex
100
AcDbPolygonMeshVertex
 10
0.0
 20
1.0
 30
1.0
 70
    64
  0
VERTEX
  5
C87
100
AcDbEntity
  8
0
  6
CONTINUOUS
 62
     7
100
AcDbVertex
100
AcDbPolygonMeshVertex
 10
-0.5
 20
0.866025
 30
1.0
 70
    64
  0
VERTEX
  5
C88
100
AcDbEntity
  8
0
  6
CONTINUOUS
 62
     7
100
AcDbVertex
100
AcDbPolygonMeshVertex
 10
-0.866025
 20
0.5
 30
1.0
 70
    64
  0
VERTEX
  5
C89
100
AcDbEntity
  8
0
  6
CONTINUOUS
 62
     7
100
AcDbVertex
100
AcDbPolygonMeshVertex
 10
-1.0
 20
0.0
 30
1.0
 70
    64
  0
VERTEX
  5
C8A
100
AcDbEntity
  8
0
  6
CONTINUOUS
 62
     7
100
AcDbVertex
100
AcDbPolygonMeshVertex
 10
-0.866025
 20
-0.5
 30
1.0
 70
    64
  0
VERTEX
  5
C8B
100
AcDbEntity
  8
0
  6
CONTINUOUS
 62
     7
100
AcDbVertex
100
AcDbPolygonMeshVertex
 10
-0.5
 20
-0.866025
 30
1.0
 70
    64
  0
VERTEX
  5
C8C
100
AcDbEntity
  8
0
  6
CONTINUOUS
 62
     7
100
AcDbVertex
100
AcDbPolygonMeshVertex
 10
0.0
 20
-1.0
 30
1.0
 70
    64
  0
VERTEX
  5
C8D
100
AcDbEntity
  8
0
  6
CONTINUOUS
 62
     7
100
AcDbVertex
100
AcDbPolygonMeshVertex
 10
0.5
 20
-0.866025
 30
1.0
 70
    64
  0
VERTEX
  5
C8E
100
AcDbEntity
  8
0
  6
CONTINUOUS
 62
     7
100
AcDbVertex
100
AcDbPolygonMeshVertex
 10
0.866025
 20
-0.5
 30
1.0
 70
    64
  0
SEQEND
  5
C8F
100
AcDbEntity
  8
0
  6
CONTINUOUS
 62
     7
  0
CIRCLE
  5
C90
100
AcDbEntity
  8
0
  6
CONTINUOUS
 62
     7
100
AcDbCircle
 10
0.0
 20
0.0
 30
0.3
 40
0.7
  0
CIRCLE
  5
C91
100
AcDbEntity
  8
0
  6
CONTINUOUS
 62
     7
100
AcDbCircle
 10
0.0
 20
0.0
 30
0.29
 40
1.0
  0
CIRCLE
  5
C92
100
AcDbEntity
  8
0
  6
CONTINUOUS
 62
     7
100
AcDbCircle
 10
0.0
 20
0.0
 30
1.0
 40
1.0
  0
ATTDEF
  5
C93
100
AcDbEntity
  8
0
  6
CONTINUOUS
100
AcDbText
 10
0.071519
 20
-1.121365
 30
0.0
 40
0.1
  1

  7
ROMANS
100
AcDbAttributeDefinition
  3

  2
VETA
 70
     1
  0
ATTDEF
  5
C94
100
AcDbEntity
  8
0
  6
CONTINUOUS
100
AcDbText
 10
0.667795
 20
-1.143067
 30
0.0
 40
0.1
  1

  7
ROMANS
100
AcDbAttributeDefinition
  3

  2
POS
 70
     1
  0
ENDBLK
  5
C96
100
AcDbEntity
  8
0
100
AcDbBlockEnd
  0
BLOCK
  5
CA0
100
AcDbEntity
  8
0
100
AcDbBlockBegin
  2
ELE-560-3D_8
 70
     2
 10
0.0
 20
0.0
 30
0.0
  3
ELE-560-3D_8
  1

  0
INSERT
  5
CA1
100
AcDbEntity
  8
VZ1
  6
CONTINUOUS
100
AcDbBlockReference
 66
     1
  2
VE202
 10
0.0
 20
0.0
 30
0.0
 41
250.0
 42
250.0
 43
425.0
  0
ATTRIB
  5
CA2
100
AcDbEntity
  8
0
  6
CONTINUOUS
100
AcDbText
 10
17.879752
 20
-280.341222
 30
0.0
 40
25.0
  1
20027
  7
ROMANS
100
AcDbAttribute
  2
VETA
 70
     1
  0
ATTRIB
  5
CA3
100
AcDbEntity
  8
0
  6
CONTINUOUS
100
AcDbText
 10
166.948645
 20
-285.766716
 30
0.0
 40
25.0
  1

  7
ROMANS
100
AcDbAttribute
  2
POS
 70
     1
  0
SEQEND
  5
CA4
100
AcDbEntity
  8
VZ1
  6
CONTINUOUS
  0
ATTDEF
  5
CA5
100
AcDbEntity
  8
VZ1
  6
CONTINUOUS
100
AcDbText
 10
0.0
 20
0.0
 30
0.0
 40
1.0
  1
20027
 41
0.8
  7
ROMANS
100
AcDbAttributeDefinition
  3

  2
VETA
 70
     1
  0
ATTDEF
  5
CA6
100
AcDbEntity
  8
VZ1
  6
CONTINUOUS
100
AcDbText
 10
0.0
 20
0.0
 30
0.0
 40
1.0
  1

 41
0.8
  7
ROMANS
100
AcDbAttributeDefinition
  3

  2
POS
 70
     1
  0
ATTDEF
  5
CA7
100
AcDbEntity
  8
VZ1
  6
CONTINUOUS
100
AcDbText
 10
0.0
 20
0.0
 30
0.0
 40
1.0
  1
CAGI  250
 41
0.8
  7
ROMANS
100
AcDbAttributeDefinition
  3

  2
NAZEV
 70
     1
  0
ATTDEF
  5
CA8
100
AcDbEntity
  8
VZ1
  6
CONTINUOUS
100
AcDbText
 10
0.0
 20
0.0
 30
0.0
 40
1.0
  1
HLAVICE CAGI TT 38-12-71
 41
0.8
  7
ROMANS
100
AcDbAttributeDefinition
  3

  2
TYP
 70
     1
  0
ENDBLK
  5
CA9
100
AcDbEntity
  8
0
100
AcDbBlockEnd
  0
BLOCK
  5
CD8
100
AcDbEntity
  8
0
100
AcDbBlockBegin
  2
VE203
 70
     2
 10
0.0
 20
0.0
 30
0.0
  3
VE203
  1

  0
LINE
  5
CB3
100
AcDbEntity
  8
0
  6
CONTINUOUS
100
AcDbLine
 39
0.07
 10
0.01
 20
-0.5
 30
0.0
 11
0.01
 21
-0.773818
 31
0.876365
210
-1.0
220
0.0
230
0.0
  0
LINE
  5
CB4
100
AcDbEntity
  8
0
  6
CONTINUOUS
100
AcDbLine
 39
0.07
 10
-0.5
 20
-0.01
 30
0.0
 11
-0.773818
 21
-0.01
 31
0.876365
210
0.0
220
1.0
230
0.0
  0
LINE
  5
CB5
100
AcDbEntity
  8
0
  6
CONTINUOUS
100
AcDbLine
 39
0.07
 10
-0.01
 20
0.5
 30
0.0
 11
-0.01
 21
0.773818
 31
0.876365
210
1.0
220
0.0
230
0.0
  0
LINE
  5
CB6
100
AcDbEntity
  8
0
  6
CONTINUOUS
100
AcDbLine
 39
0.07
 10
0.5
 20
0.01
 30
0.0
 11
0.773818
 21
0.01
 31
0.876365
210
0.0
220
-1.0
230
0.0
  0
LINE
  5
CB7
100
AcDbEntity
  8
0
  6
CONTINUOUS
 62
     7
100
AcDbLine
 10
0.0
 20
0.0
 30
0.0
 11
0.0
 21
0.0
 31
1.0
  0
CIRCLE
  5
CB8
100
AcDbEntity
  8
0
  6
CONTINUOUS
 62
     7
100
AcDbCircle
 10
0.0
 20
0.0
 30
0.0
 40
0.5
  0
CIRCLE
  5
CB9
100
AcDbEntity
  8
0
  6
CONTINUOUS
100
AcDbCircle
 10
0.0
 20
0.0
 30
0.05
 40
0.5
  0
POLYLINE
  5
CBA
100
AcDbEntity
  8
0
  6
CONTINUOUS
 62
     7
100
AcDbPolygonMesh
 66
     1
 10
0.0
 20
0.0
 30
0.0
 70
    48
 71
     2
 72
    12
  0
VERTEX
  5
CBB
100
AcDbEntity
  8
0
  6
CONTINUOUS
 62
     7
100
AcDbVertex
100
AcDbPolygonMeshVertex
 10
0.01
 20
0.0
 30
1.0
 70
    64
  0
VERTEX
  5
CBC
100
AcDbEntity
  8
0
  6
CONTINUOUS
 62
     7
100
AcDbVertex
100
AcDbPolygonMeshVertex
 10
0.00866
 20
0.005
 30
1.0
 70
    64
  0
VERTEX
  5
CBD
100
AcDbEntity
  8
0
  6
CONTINUOUS
 62
     7
100
AcDbVertex
100
AcDbPolygonMeshVertex
 10
0.005
 20
0.00866
 30
1.0
 70
    64
  0
VERTEX
  5
CBE
100
AcDbEntity
  8
0
  6
CONTINUOUS
 62
     7
100
AcDbVertex
100
AcDbPolygonMeshVertex
 10
0.0
 20
0.01
 30
1.0
 70
    64
  0
VERTEX
  5
CBF
100
AcDbEntity
  8
0
  6
CONTINUOUS
 62
     7
100
AcDbVertex
100
AcDbPolygonMeshVertex
 10
-0.005
 20
0.00866
 30
1.0
 70
    64
  0
VERTEX
  5
CC0
100
AcDbEntity
  8
0
  6
CONTINUOUS
 62
     7
100
AcDbVertex
100
AcDbPolygonMeshVertex
 10
-0.00866
 20
0.005
 30
1.0
 70
    64
  0
VERTEX
  5
CC1
100
AcDbEntity
  8
0
  6
CONTINUOUS
 62
     7
100
AcDbVertex
100
AcDbPolygonMeshVertex
 10
-0.01
 20
0.0
 30
1.0
 70
    64
  0
VERTEX
  5
CC2
100
AcDbEntity
  8
0
  6
CONTINUOUS
 62
     7
100
AcDbVertex
100
AcDbPolygonMeshVertex
 10
-0.00866
 20
-0.005
 30
1.0
 70
    64
  0
VERTEX
  5
CC3
100
AcDbEntity
  8
0
  6
CONTINUOUS
 62
     7
100
AcDbVertex
100
AcDbPolygonMeshVertex
 10
-0.005
 20
-0.00866
 30
1.0
 70
    64
  0
VERTEX
  5
CC4
100
AcDbEntity
  8
0
  6
CONTINUOUS
 62
     7
100
AcDbVertex
100
AcDbPolygonMeshVertex
 10
0.0
 20
-0.01
 30
1.0
 70
    64
  0
VERTEX
  5
CC5
100
AcDbEntity
  8
0
  6
CONTINUOUS
 62
     7
100
AcDbVertex
100
AcDbPolygonMeshVertex
 10
0.005
 20
-0.00866
 30
1.0
 70
    64
  0
VERTEX
  5
CC6
100
AcDbEntity
  8
0
  6
CONTINUOUS
 62
     7
100
AcDbVertex
100
AcDbPolygonMeshVertex
 10
0.00866
 20
-0.005
 30
1.0
 70
    64
  0
VERTEX
  5
CC7
100
AcDbEntity
  8
0
  6
CONTINUOUS
 62
     7
100
AcDbVertex
100
AcDbPolygonMeshVertex
 10
1.0
 20
0.0
 30
0.85
 70
    64
  0
VERTEX
  5
CC8
100
AcDbEntity
  8
0
  6
CONTINUOUS
 62
     7
100
AcDbVertex
100
AcDbPolygonMeshVertex
 10
0.866025
 20
0.5
 30
0.85
 70
    64
  0
VERTEX
  5
CC9
100
AcDbEntity
  8
0
  6
CONTINUOUS
 62
     7
100
AcDbVertex
100
AcDbPolygonMeshVertex
 10
0.5
 20
0.866025
 30
0.85
 70
    64
  0
VERTEX
  5
CCA
100
AcDbEntity
  8
0
  6
CONTINUOUS
 62
     7
100
AcDbVertex
100
AcDbPolygonMeshVertex
 10
0.0
 20
1.0
 30
0.85
 70
    64
  0
VERTEX
  5
CCB
100
AcDbEntity
  8
0
  6
CONTINUOUS
 62
     7
100
AcDbVertex
100
AcDbPolygonMeshVertex
 10
-0.5
 20
0.866025
 30
0.85
 70
    64
  0
VERTEX
  5
CCC
100
AcDbEntity
  8
0
  6
CONTINUOUS
 62
     7
100
AcDbVertex
100
AcDbPolygonMeshVertex
 10
-0.866025
 20
0.5
 30
0.85
 70
    64
  0
VERTEX
  5
CCD
100
AcDbEntity
  8
0
  6
CONTINUOUS
 62
     7
100
AcDbVertex
100
AcDbPolygonMeshVertex
 10
-1.0
 20
0.0
 30
0.85
 70
    64
  0
VERTEX
  5
CCE
100
AcDbEntity
  8
0
  6
CONTINUOUS
 62
     7
100
AcDbVertex
100
AcDbPolygonMeshVertex
 10
-0.866025
 20
-0.5
 30
0.85
 70
    64
  0
VERTEX
  5
CCF
100
AcDbEntity
  8
0
  6
CONTINUOUS
 62
     7
100
AcDbVertex
100
AcDbPolygonMeshVertex
 10
-0.5
 20
-0.866025
 30
0.85
 70
    64
  0
VERTEX
  5
CD0
100
AcDbEntity
  8
0
  6
CONTINUOUS
 62
     7
100
AcDbVertex
100
AcDbPolygonMeshVertex
 10
0.0
 20
-1.0
 30
0.85
 70
    64
  0
VERTEX
  5
CD1
100
AcDbEntity
  8
0
  6
CONTINUOUS
 62
     7
100
AcDbVertex
100
AcDbPolygonMeshVertex
 10
0.5
 20
-0.866025
 30
0.85
 70
    64
  0
VERTEX
  5
CD2
100
AcDbEntity
  8
0
  6
CONTINUOUS
 62
     7
100
AcDbVertex
100
AcDbPolygonMeshVertex
 10
0.866025
 20
-0.5
 30
0.85
 70
    64
  0
SEQEND
  5
CD3
100
AcDbEntity
  8
0
  6
CONTINUOUS
 62
     7
  0
CIRCLE
  5
CD4
100
AcDbEntity
  8
0
  6
CONTINUOUS
 62
     7
100
AcDbCircle
 10
0.0
 20
0.0
 30
0.85
 40
1.0
  0
CIRCLE
  5
CD5
100
AcDbEntity
  8
0
  6
CONTINUOUS
 62
     7
100
AcDbCircle
 10
0.0
 20
0.0
 30
1.0
 40
0.01
  0
ATTDEF
  5
CD6
100
AcDbEntity
  8
0
  6
CONTINUOUS
100
AcDbText
 10
-0.284371
 20
-0.95026
 30
0.0
 40
0.1
  1

  7
ROMANS
100
AcDbAttributeDefinition
  3

  2
VETA
 70
     1
  0
ATTDEF
  5
CD7
100
AcDbEntity
  8
0
  6
CONTINUOUS
100
AcDbText
 10
0.394755
 20
-0.971599
 30
0.0
 40
0.1
  1

  7
ROMANS
100
AcDbAttributeDefinition
  3

  2
POS
 70
     1
  0
ENDBLK
  5
CD9
100
AcDbEntity
  8
0
100
AcDbBlockEnd
  0
BLOCK
  5
CE3
100
AcDbEntity
  8
0
100
AcDbBlockBegin
  2
ELE-560-3D_9
 70
     2
 10
0.0
 20
0.0
 30
0.0
  3
ELE-560-3D_9
  1

  0
INSERT
  5
CE4
100
AcDbEntity
  8
VZ1
  6
CONTINUOUS
100
AcDbBlockReference
 66
     1
  2
VE203
 10
0.0
 20
0.0
 30
0.0
 41
200.0
 42
200.0
 43
135.0
  0
ATTRIB
  5
CE5
100
AcDbEntity
  8
0
  6
CONTINUOUS
100
AcDbText
 10
-56.874134
 20
-190.052096
 30
0.0
 40
20.0
  1
20046
  7
ROMANS
100
AcDbAttribute
  2
VETA
 70
     1
  0
ATTRIB
  5
CE6
100
AcDbEntity
  8
0
  6
CONTINUOUS
100
AcDbText
 10
78.950974
 20
-194.319826
 30
0.0
 40
20.0
  1

  7
ROMANS
100
AcDbAttribute
  2
POS
 70
     1
  0
SEQEND
  5
CE7
100
AcDbEntity
  8
VZ1
  6
CONTINUOUS
  0
ATTDEF
  5
CE8
100
AcDbEntity
  8
VZ1
  6
CONTINUOUS
100
AcDbText
 10
0.0
 20
0.0
 30
0.0
 40
1.0
  1
20046
 41
0.8
  7
ROMANS
100
AcDbAttributeDefinition
  3

  2
VETA
 70
     1
  0
ATTDEF
  5
CE9
100
AcDbEntity
  8
VZ1
  6
CONTINUOUS
100
AcDbText
 10
0.0
 20
0.0
 30
0.0
 40
1.0
  1

 41
0.8
  7
ROMANS
100
AcDbAttributeDefinition
  3

  2
POS
 70
     1
  0
ATTDEF
  5
CEA
100
AcDbEntity
  8
VZ1
  6
CONTINUOUS
100
AcDbText
 10
0.0
 20
0.0
 30
0.0
 40
1.0
  1
STRISKA  200
 41
0.8
  7
ROMANS
100
AcDbAttributeDefinition
  3

  2
NAZEV
 70
     1
  0
ATTDEF
  5
CEB
100
AcDbEntity
  8
VZ1
  6
CONTINUOUS
100
AcDbText
 10
0.0
 20
0.0
 30
0.0
 40
1.0
  1
STRISKA KRUHOVA TT 48-12-71
 41
0.8
  7
ROMANS
100
AcDbAttributeDefinition
  3

  2
TYP
 70
     1
  0
ENDBLK
  5
CEC
100
AcDbEntity
  8
0
100
AcDbBlockEnd
  0
BLOCK
  5
D00
100
AcDbEntity
  8
ASHADE
100
AcDbBlockBegin
  2
AVE_RENDER
 70
     0
 10
-200.0
 20
0.0
 30
-276.0
  3
AVE_RENDER
  1
AVE_RENDER
  0
ENDBLK
  5
D01
100
AcDbEntity
  8
0
100
AcDbBlockEnd
  0
BLOCK
  5
D0E
100
AcDbEntity
  8
ASHADE
100
AcDbBlockBegin
  2
AVE_GLOBAL
 70
     0
 10
-200.0
 20
0.0
 30
-276.0
  3
AVE_GLOBAL
  1
AVE_GLOBAL
  0
ENDBLK
  5
D0F
100
AcDbEntity
  8
0
100
AcDbBlockEnd
  0
BLOCK
  5
DF8
100
AcDbEntity
  8
0
100
AcDbBlockBegin
  2
A
 70
     0
 10
0.0
 20
0.0
 30
0.0
  3
A
  1

  0
POINT
  5
DF9
100
AcDbEntity
  8
VZ1
  6
CONTINUOUS
100
AcDbPoint
 10
0.0
 20
0.0
 30
0.0
  0
LINE
  5
DFA
100
AcDbEntity
  8
VZ1
  6
CONTINUOUS
100
AcDbLine
 10
568.887447
 20
-152.432932
 30
-27.765161
 11
-152.432932
 21
-568.887447
 31
-27.765161
  0
LINE
  5
DFB
100
AcDbEntity
  8
VZ1
  6
CONTINUOUS
100
AcDbLine
 10
-568.887447
 20
152.432932
 30
-27.765161
 11
152.432932
 21
568.887447
 31
-27.765161
  0
3DSOLID
  5
DFC
100
AcDbEntity
  8
VZ1
  6
CONTINUOUS
100
AcDbModelerGeometry
 70
     1
  1
noi mi n o          
  1
=0;& {n {m {rn {rn |
  1
9@=0;&r3(;r>++-6= {rn {l {rn {o |
  1
3*2/ {k {rn {j {o |
  1
-:9@)+r3(;r>++-6= {rn {rn {n {o {i {h |
  1
-:9@)+r3(;r>++-6= {rn {rn {rn {m {i {h |
  1
,7:33 {g {rn {rn {f {m |
  1
-:961:2:1+ {rn o o o o jqoginoihhhnfnnimn o o o m |
  1
):-+:'@+:2/3>+: {rn l o n g |
  1
-:9@)+r3(;r>++-6= {rn {rn {rn {j {i {h |
  1
9><: {no {nn {nm {j {rn {nl -:):-,:; ,6183: |
  1
-:9@)+r3(;r>++-6= {rn {rn {rn {f {i {rn |
  1
9><: {nk {rn {nj {j {rn {ni 90-(>-; ,6183: |
  1
300/ {rn {rn {nh {f |
  1
/3>1:r,*-9><: {rn rmqgkmnhofklokokooh:ronl jqkjjmhkknflmjnngk:ronj nhfqhhfkmommolffif o o n mqhhijninkmlffffg o o o V V V V |
  1
-:9@)+r3(;r>++-6= {rn {rn {rn {nn {i {rn |
  1
300/ {rn {rn {ng {nn |
  1
,/7:-:r,*-9><: {rn rmqgkmnhofklokokooh:ronl rlqkhofghfgmfhmkjnf:romf rnlgqgmjgohnmoooong ikoqmnnijhjlfognji n o o o o n o V V V V |
  1
<0:;8: {nf {nh {nh {ng {mo o {nm {rn |
  1
<0:;8: {mn {ng {ng {nh {mo n {nj {rn |
  1
<0/>-r3(;r>++-6= {rn {rn {rn {nh |
  1
:;8: {mm {ml {ml {ng {mk o |
  1
<0/>-r3(;r>++-6= {rn {rn {rn {ng |
  1
:/>-r3(;r>++-6= {rn {rn {rn {mo |
  1
):-+:' {rn {mo {mj |
  1
:336/,:r<*-): {rn rmqgkmnhofklokokooh:ronl rlqkhofghfgmfhmkjnf:romf nhfqhhfkmommolffif o o rn o rjjjqlolmmgkhfffflj o n V V |
  1
/061+ {rn rkqoohkinomfigifij:ronm jjjqlolmmgkhffffki nhfqhhfkmommolffif |
  0
ELLIPSE
  5
DFD
100
AcDbEntity
  8
0
  6
CONTINUOUS
 62
     7
100
AcDbEllipse
 10
0.0
 20
0.0
 30
179.77942
 11
-392.6586784729907
 21
392.6586784729907
 31
0.0
210
0.0
220
0.0
230
-1.0
 40
1.0
 41
0.0
 42
6.283185307179586
  0
ELLIPSE
  5
DFE
100
AcDbEntity
  8
0
  6
CONTINUOUS
 62
     7
100
AcDbEllipse
 10
0.0
 20
0.0
 30
0.0
 11
-196.3293392364953
 21
196.3293392364953
 31
0.0
210
0.0
220
0.0
230
-1.0
 40
1.0
 41
0.0
 42
6.283185307179586
  0
LINE
  5
DFF
100
AcDbEntity
  8
0
  6
CONTINUOUS
100
AcDbLine
 39
38.871226
 10
5.553032
 20
-277.651614
 30
0.0
 11
5.553032
 21
-429.703698
 31
189.661955
210
-1.0
220
0.0
230
0.0
  0
INSERT
  5
E00
100
AcDbEntity
  8
VZ1
  6
CONTINUOUS
100
AcDbBlockReference
 66
     1
  2
ELE-560-3D_7
 10
0.0
 20
0.0
 30
0.0
 41
1.01204
 42
1.01204
 43
1.01204
 50
300.0
  0
ATTRIB
  5
E01
100
AcDbEntity
  8
VZ1
  6
CONTINUOUS
100
AcDbText
 10
0.0
 20
0.0
 30
0.0
 40
1.01204
  1
51199
 50
300.0
 41
0.8
  7
ROMANS
100
AcDbAttribute
  2
VETA
 70
     1
  0
ATTRIB
  5
E02
100
AcDbEntity
  8
VZ1
  6
CONTINUOUS
100
AcDbText
 10
0.0
 20
0.0
 30
0.0
 40
1.01204
  1

 50
300.0
 41
0.8
  7
ROMANS
100
AcDbAttribute
  2
POS
 70
     1
  0
ATTRIB
  5
E03
100
AcDbEntity
  8
VZ1
  6
CONTINUOUS
100
AcDbText
 10
0.0
 20
0.0
 30
0.0
 40
1.01204
  1

 50
300.0
 41
0.8
  7
ROMANS
100
AcDbAttribute
  2
NAZEV
 70
     1
  0
ATTRIB
  5
E04
100
AcDbEntity
  8
VZ1
  6
CONTINUOUS
100
AcDbText
 10
0.0
 20
0.0
 30
0.0
 40
1.01204
  1
REDUKCE 02/124
 50
300.0
 41
0.8
  7
ROMANS
100
AcDbAttribute
  2
TYP
 70
     1
  0
SEQEND
  5
E05
100
AcDbEntity
  8
VZ1
  6
CONTINUOUS
  0
CIRCLE
  5
E06
100
AcDbEntity
  8
VZ1
  6
CONTINUOUS
100
AcDbCircle
 10
0.0
 20
0.0
 30
0.0
 40
249.886453
  0
LINE
  5
E07
100
AcDbEntity
  8
VZ1
  6
CONTINUOUS
100
AcDbLine
 10
-152.432932
 20
-568.887447
 30
-27.765161
 11
-568.887447
 21
152.432932
 31
-27.765161
  0
LINE
  5
E08
100
AcDbEntity
  8
0
  6
CONTINUOUS
100
AcDbLine
 39
38.871226
 10
-277.651614
 20
-5.553032
 30
0.0
 11
-429.703698
 21
-5.553032
 31
189.661955
210
0.0
220
1.0
230
0.0
  0
LINE
  5
E09
100
AcDbEntity
  8
VZ1
  6
CONTINUOUS
100
AcDbLine
 10
-152.432932
 20
-568.887447
 30
0.0
 11
-152.432932
 21
-568.887447
 31
-27.765161
  0
LINE
  5
E0A
100
AcDbEntity
  8
VZ1
  6
CONTINUOUS
100
AcDbLine
 10
-568.887447
 20
152.432932
 30
0.0
 11
-568.887447
 21
152.432932
 31
-27.765161
  0
LINE
  5
E0B
100
AcDbEntity
  8
VZ1
  6
CONTINUOUS
100
AcDbLine
 10
152.432932
 20
568.887447
 30
-27.765161
 11
568.887447
 21
-152.432932
 31
-27.765161
  0
LINE
  5
E0C
100
AcDbEntity
  8
0
  6
CONTINUOUS
100
AcDbLine
 39
38.871226
 10
277.651614
 20
5.553032
 30
0.0
 11
429.703698
 21
5.553032
 31
189.661955
210
0.0
220
-1.0
230
0.0
  0
LINE
  5
E0D
100
AcDbEntity
  8
VZ1
  6
CONTINUOUS
100
AcDbLine
 10
568.887447
 20
-152.432932
 30
0.0
 11
568.887447
 21
-152.432932
 31
-27.765161
  0
LINE
  5
E0E
100
AcDbEntity
  8
0
  6
CONTINUOUS
100
AcDbLine
 39
25.144
 10
3.957852
 20
276.122258
 30
0.0
 11
3.957852
 21
374.477725
 31
122.683555
210
1.0
220
0.0
230
0.0
  0
LINE
  5
E0F
100
AcDbEntity
  8
VZ1
  6
CONTINUOUS
100
AcDbLine
 10
152.432932
 20
568.887447
 30
-9.805161
 11
152.432932
 21
568.887447
 31
-27.765161
  0
ENDBLK
  5
E10
100
AcDbEntity
  8
0
100
AcDbBlockEnd
  0
ENDSEC
  0
SECTION
  2
ENTITIES
  0
INSERT
  5
D02
100
AcDbEntity
  8
ASHADE
  6
CONTINUOUS
 62
     1
100
AcDbBlockReference
  2
AVE_RENDER
 10
-200.0
 20
0.0
 30
-276.0
1001
AVE_RENDER
1002
{
1070
     7
1000
Pref
1070
    30
1070
    20
1070
     1
1070
     0
1000

1070
    10
1070
     1
1070
    10
1040
1.0
1070
     1
1040
0.3
1040
0.7
1040
0.0
1040
10.0
1010
-1.0
1020
-1.0
1030
-1.0
1040
0.3
1070
    49
1070
     0
1070
     0
1010
1.0
1020
1.0
1030
1.0
1040
45.0
1070
     1
1070
     0
1000
WCS
1040
0.0
1070
     0
1040
10.0
1002
}
  0
INSERT
  5
D03
100
AcDbEntity
  8
ASHADE
  6
CONTINUOUS
 62
     3
100
AcDbBlockReference
  2
AVE_RENDER
 10
-200.0
 20
0.0
 30
-276.0
1001
AVE_RENDER
1002
{
1070
     0
1000
Full Opt
1070
     0
1070
     1
1070
     1
1070
     1
1070
     0
1070
     0
1070
     0
1070
     1
1070
     1
1040
0.0001
1040
0.0001
1002
}
  0
INSERT
  5
D04
100
AcDbEntity
  8
ASHADE
  6
CONTINUOUS
 62
     4
100
AcDbBlockReference
  2
AVE_RENDER
 10
-200.0
 20
0.0
 30
-276.0
1001
AVE_RENDER
1002
{
1070
     0
1000
Quick Opt
1070
     0
1070
     1
1070
     1
1070
     1
1070
     0
1070
     0
1070
     1
1002
}
  0
INSERT
  5
D05
100
AcDbEntity
  8
ASHADE
  6
CONTINUOUS
 62
     5
100
AcDbBlockReference
  2
AVE_RENDER
 10
-200.0
 20
0.0
 30
-276.0
1001
AVE_RENDER
1002
{
1070
     1
1000
Scanl Opt
1070
     2
1070
     0
1070
     2
1040
2.0
1040
4.0
1070
     0
1070
     1
1070
     0
1040
0.03
1002
}
  0
INSERT
  5
D06
100
AcDbEntity
  8
ASHADE
  6
CONTINUOUS
 62
     6
100
AcDbBlockReference
  2
AVE_RENDER
 10
-200.0
 20
0.0
 30
-276.0
1001
AVE_RENDER
1002
{
1070
     2
1000
Raytr Opt
1070
     2
1070
     0
1070
     2
1040
2.0
1040
4.0
1070
     0
1070
     1
1070
     1
1040
0.03
1070
     3
1040
0.03
1002
}
  0
INSERT
  5
D07
100
AcDbEntity
  8
ASHADE
  6
CONTINUOUS
 62
     7
100
AcDbBlockReference
  2
AVE_RENDER
 10
-200.0
 20
0.0
 30
-276.0
1001
AVE_RENDER
1002
{
1070
     0
1000
RFile Opt
1070
     1
1070
   640
1070
   480
1070
 10000
1070
     1
1070
     8
1070
     8
1070
     0
1070
     0
1070
     0
1070
     0
1070
     0
1070
     0
1070
     0
1002
}
  0
INSERT
  5
D08
100
AcDbEntity
  8
ASHADE
  6
CONTINUOUS
 62
     8
100
AcDbBlockReference
  2
AVE_RENDER
 10
-200.0
 20
0.0
 30
-276.0
1001
AVE_RENDER
1002
{
1070
     0
1000
Fog Opt
1070
     0
1070
     0
1040
0.0
1040
1.0
1040
0.0
1040
1.0
1010
0.5
1020
0.5
1030
0.5
1002
}
  0
INSERT
  5
D09
100
AcDbEntity
  8
ASHADE
  6
CONTINUOUS
 62
     9
100
AcDbBlockReference
  2
AVE_RENDER
 10
-200.0
 20
0.0
 30
-276.0
1001
AVE_RENDER
1002
{
1070
     0
1000
BG Opt
1070
     0
1070
     1
1010
0.0
1020
0.0
1030
0.0
1010
1.0
1020
0.0
1030
0.0
1010
0.0
1020
1.0
1030
0.0
1010
0.0
1020
0.0
1030
1.0
1040
0.5
1040
0.33
1040
0.0
1000

1070
     1
1000

1070
     1
1070
     1
1040
1.0
1040
1.0
1040
0.0
1040
0.0
1070
     0
1002
}
  0
INSERT
  5
D10
100
AcDbEntity
  8
ASHADE
  6
CONTINUOUS
 62
     1
100
AcDbBlockReference
  2
AVE_GLOBAL
 10
-200.0
 20
0.0
 30
-276.0
1001
AVE_MATERIAL
1002
{
1000
*GLOBAL*
1000
1
1000
Global finish.
1002
{
1002
}
1002
{
1070
    63
1002
{
1002
{
1010
-1.0
1020
-1.0
1030
-1.0
1002
}
1040
0.1
1000

1040
0.0
1002
{
1002
}
1040
0.0
1002
{
1002
}
1040
0.0
1002
}
1002
{
1002
{
1010
-1.0
1020
-1.0
1030
-1.0
1002
}
1040
0.7
1000

1040
0.0
1002
{
1002
}
1040
0.0
1002
{
1002
}
1040
0.0
1002
}
1002
{
1002
{
1010
-1.0
1020
-1.0
1030
-1.0
1002
}
1040
0.2
1000

1040
0.0
1002
{
1002
}
1040
0.0
1002
{
1002
}
1040
0.0
1002
}
1002
{
1070
     0
1002
{
1070
     1
1002
{
1040
1.0
1040
1.0
1000

1040
0.0
1002
{
1002
}
1040
0.0
1002
{
1002
}
1040
0.0
1002
}
1002
}
1040
1.0
1040
0.0
1040
0.0
1002
}
1002
{
1040
1.0
1040
1.0
1000

1040
0.0
1002
{
1002
}
1040
0.0
1002
{
1002
}
1040
0.0
1002
}
1002
{
1040
0.5
1040
1.0
1000

1040
0.0
1002
{
1002
}
1040
0.0
1002
{
1002
}
1040
0.0
1002
}
1002
{
1070
     0
1040
0.0
1002
{
1002
}
1040
1.0
1002
{
1002
}
1040
0.0
1002
}
1002
{
1040
0.0
1002
{
1002
{
1010
0.0
1020
0.0
1030
0.0
1002
}
1040
1.0
1000

1040
0.0
1002
{
1002
}
1040
0.0
1002
{
1002
}
1040
0.0
1002
}
1002
}
1002
{
1002
{
1070
     1
1002
{
1040
0.0
1040
1.0
1000

1040
0.0
1002
{
1002
}
1040
0.0
1002
{
1002
}
1040
0.0
1002
}
1002
}
1040
0.0
1002
{
1002
}
1010
1.0
1020
0.0
1030
0.0
1010
0.0
1020
1.0
1030
0.0
1010
0.0
1020
0.0
1030
1.0
1070
     0
1002
}
1002
{
1002
{
1040
1.0
1040
1.0
1002
{
1070
     1
1002
{
1040
1.0
1040
1.0
1000

1040
0.0
1002
{
1002
}
1040
0.0
1002
{
1002
}
1040
0.0
1002
}
1002
}
1002
}
1070
     0
1040
0.0
1002
{
1002
}
1002
}
1002
{
1002
}
1002
}
1002
{
1071
        3
1070
     3
1070
     0
1002
{
1070
     2
1070
     0
1070
     0
1040
0.0
1002
}
1070
     0
1070
     2
1002
{
1002
}
1002
}
1002
{
1040
8030.0
1040
190.300003
1040
0.305
1040
228.0
1040
545.0
1040
14.0
1040
17.4
1040
0.456
1002
}
1002
}
  0
INSERT
  5
E11
100
AcDbEntity
  8
VZ1
  6
CONTINUOUS
100
AcDbBlockReference
  2
A
 10
200.0
 20
0.0
 30
276.0
  0
ENDSEC
  0
SECTION
  2
OBJECTS
  0
DICTIONARY
  5
81F
100
AcDbDictionary
  3
ACAD_GROUP
350
820
  3
ACAD_MLINESTYLE
350
82D
  3
ACDBVARIABLEDICTIONARY
350
83F
  0
DICTIONARY
  5
820
102
{ACAD_REACTORS
330
81F
102
}
100
AcDbDictionary
  0
DICTIONARY
  5
82D
102
{ACAD_REACTORS
330
81F
102
}
100
AcDbDictionary
  3
STANDARD
350
82E
  0
DICTIONARY
  5
83F
102
{ACAD_REACTORS
330
81F
102
}
100
AcDbDictionary
  3
DIMADEC
350
840
  0
MLINESTYLE
  5
82E
102
{ACAD_REACTORS
330
82D
102
}
100
AcDbMlineStyle
  2
STANDARD
 70
     0
  3

 62
   256
 51
90.0
 52
90.0
 71
     2
 49
0.5
 62
   256
  6
BYLAYER
 49
-0.5
 62
   256
  6
BYLAYER
  0
DICTIONARYVAR
  5
840
102
{ACAD_REACTORS
330
83F
102
}
100
DictionaryVariables
280
     0
  1
0
  0
ENDSEC
  0
EOF
