  0
SECTION
  2
HEADER
  9
$ACADVER
  1
AC1014
  9
$ACADMAINTVER
 70
     0
  9
$DWGCODEPAGE
  3
ANSI_1250
  9
$INSBASE
 10
0.0
 20
0.0
 30
0.0
  9
$EXTMIN
 10
-81.5
 20
0.0
 30
-81.5
  9
$EXTMAX
 10
81.5
 20
155.0
 30
81.5
  9
$LIMMIN
 10
0.0
 20
0.0
  9
$LIMMAX
 10
420.0
 20
297.0
  9
$ORTHOMODE
 70
     1
  9
$REGENMODE
 70
     1
  9
$FILLMODE
 70
     0
  9
$QTEXTMODE
 70
     0
  9
$MIRRTEXT
 70
     1
  9
$DRAGMODE
 70
     2
  9
$LTSCALE
 40
1.0
  9
$OSMODE
 70
    47
  9
$ATTMODE
 70
     1
  9
$TEXTSIZE
 40
1.0
  9
$TRACEWID
 40
1.0
  9
$TEXTSTYLE
  7
ROMANS
  9
$CLAYER
  8
VZ1
  9
$CELTYPE
  6
CONTINUOUS
  9
$CECOLOR
 62
   256
  9
$CELTSCALE
 40
1.0
  9
$DELOBJ
 70
     1
  9
$DISPSILH
 70
     0
  9
$DIMSCALE
 40
1.0
  9
$DIMASZ
 40
2.0
  9
$DIMEXO
 40
0.625
  9
$DIMDLI
 40
3.75
  9
$DIMRND
 40
1.0
  9
$DIMDLE
 40
0.0
  9
$DIMEXE
 40
1.0
  9
$DIMTP
 40
0.0
  9
$DIMTM
 40
0.0
  9
$DIMTXT
 40
2.5
  9
$DIMCEN
 40
-100.0
  9
$DIMTSZ
 40
0.0
  9
$DIMTOL
 70
     0
  9
$DIMLIM
 70
     0
  9
$DIMTIH
 70
     0
  9
$DIMTOH
 70
     0
  9
$DIMSE1
 70
     0
  9
$DIMSE2
 70
     0
  9
$DIMTAD
 70
     1
  9
$DIMZIN
 70
     8
  9
$DIMBLK
  1

  9
$DIMASO
 70
     1
  9
$DIMSHO
 70
     1
  9
$DIMPOST
  1

  9
$DIMAPOST
  1

  9
$DIMALT
 70
     0
  9
$DIMALTD
 70
     4
  9
$DIMALTF
 40
0.0394
  9
$DIMLFAC
 40
1.0
  9
$DIMTOFL
 70
     1
  9
$DIMTVP
 40
2.0
  9
$DIMTIX
 70
     0
  9
$DIMSOXD
 70
     0
  9
$DIMSAH
 70
     1
  9
$DIMBLK1
  1
_OBLIQUE
  9
$DIMBLK2
  1
_OBLIQUE
  9
$DIMSTYLE
  2
STANEK
  9
$DIMCLRD
 70
     1
  9
$DIMCLRE
 70
     1
  9
$DIMCLRT
 70
     1
  9
$DIMTFAC
 40
2.2
  9
$DIMGAP
 40
0.625
  9
$DIMJUST
 70
     0
  9
$DIMSD1
 70
     0
  9
$DIMSD2
 70
     0
  9
$DIMTOLJ
 70
     1
  9
$DIMTZIN
 70
     8
  9
$DIMALTZ
 70
     8
  9
$DIMALTTZ
 70
     8
  9
$DIMFIT
 70
     5
  9
$DIMUPT
 70
     0
  9
$DIMUNIT
 70
     2
  9
$DIMDEC
 70
     4
  9
$DIMTDEC
 70
     4
  9
$DIMALTU
 70
     2
  9
$DIMALTTD
 70
     4
  9
$DIMTXSTY
  7
ROMANS
  9
$DIMAUNIT
 70
     0
  9
$LUNITS
 70
     2
  9
$LUPREC
 70
     4
  9
$SKETCHINC
 40
1.0
  9
$FILLETRAD
 40
10.0
  9
$AUNITS
 70
     0
  9
$AUPREC
 70
     0
  9
$MENU
  1
.
  9
$ELEVATION
 40
0.0
  9
$PELEVATION
 40
0.0
  9
$THICKNESS
 40
0.0
  9
$LIMCHECK
 70
     0
  9
$BLIPMODE
 70
     0
  9
$CHAMFERA
 40
10.0
  9
$CHAMFERB
 40
10.0
  9
$CHAMFERC
 40
0.0
  9
$CHAMFERD
 40
0.0
  9
$SKPOLY
 70
     0
  9
$TDCREATE
 40
2450990.465911806
  9
$TDUPDATE
 40
2452959.653587847
  9
$TDINDWG
 40
0.3757197917
  9
$TDUSRTIMER
 40
0.3757197917
  9
$USRTIMER
 70
     1
  9
$ANGBASE
 50
0.0
  9
$ANGDIR
 70
     0
  9
$PDMODE
 70
     3
  9
$PDSIZE
 40
0.0
  9
$PLINEWID
 40
0.0
  9
$COORDS
 70
     1
  9
$SPLFRAME
 70
     0
  9
$SPLINETYPE
 70
     6
  9
$SPLINESEGS
 70
     8
  9
$ATTDIA
 70
     0
  9
$ATTREQ
 70
     1
  9
$HANDLING
 70
     1
  9
$HANDSEED
  5
FC9
  9
$SURFTAB1
 70
    12
  9
$SURFTAB2
 70
     6
  9
$SURFTYPE
 70
     6
  9
$SURFU
 70
     6
  9
$SURFV
 70
     6
  9
$UCSNAME
  2

  9
$UCSORG
 10
0.0
 20
0.0
 30
0.0
  9
$UCSXDIR
 10
1.0
 20
0.0
 30
0.0
  9
$UCSYDIR
 10
0.0
 20
1.0
 30
0.0
  9
$PUCSNAME
  2

  9
$PUCSORG
 10
0.0
 20
0.0
 30
0.0
  9
$PUCSXDIR
 10
1.0
 20
0.0
 30
0.0
  9
$PUCSYDIR
 10
0.0
 20
1.0
 30
0.0
  9
$USERI1
 70
     1
  9
$USERI2
 70
     5
  9
$USERI3
 70
     2
  9
$USERI4
 70
     2
  9
$USERI5
 70
     6
  9
$USERR1
 40
281.0
  9
$USERR2
 40
321.0
  9
$USERR3
 40
0.0
  9
$USERR4
 40
0.0
  9
$USERR5
 40
0.0
  9
$WORLDVIEW
 70
     1
  9
$SHADEDGE
 70
     3
  9
$SHADEDIF
 70
    70
  9
$TILEMODE
 70
     1
  9
$MAXACTVP
 70
    48
  9
$PINSBASE
 10
0.0
 20
0.0
 30
0.0
  9
$PLIMCHECK
 70
     0
  9
$PEXTMIN
 10
1.000000E+20
 20
1.000000E+20
 30
1.000000E+20
  9
$PEXTMAX
 10
-1.000000E+20
 20
-1.000000E+20
 30
-1.000000E+20
  9
$PLIMMIN
 10
0.0
 20
0.0
  9
$PLIMMAX
 10
420.0
 20
297.0
  9
$UNITMODE
 70
     0
  9
$VISRETAIN
 70
     1
  9
$PLINEGEN
 70
     0
  9
$PSLTSCALE
 70
     1
  9
$TREEDEPTH
 70
  3020
  9
$PICKSTYLE
 70
     1
  9
$CMLSTYLE
  2
STANDARD
  9
$CMLJUST
 70
     0
  9
$CMLSCALE
 40
1.0
  9
$PROXYGRAPHICS
 70
     1
  9
$MEASUREMENT
 70
     0
  0
ENDSEC
  0
SECTION
  2
CLASSES
  0
CLASS
  1
DICTIONARYVAR
  2
AcDbDictionaryVar
  3
"AutoCAD"
 90
        0
280
     0
281
     0
  0
CLASS
  1
LWPOLYLINE
  2
AcDbPolyline
  3
"AutoCAD"
 90
        0
280
     0
281
     1
  0
ENDSEC
  0
SECTION
  2
TABLES
  0
TABLE
  2
VPORT
  5
81B
100
AcDbSymbolTable
 70
     4
  0
VPORT
  5
FC8
100
AcDbSymbolTableRecord
100
AcDbViewportTableRecord
  2
*ACTIVE
 70
     0
 10
0.0
 20
0.0
 11
1.0
 21
1.0
 12
-17.434441
 22
-1.016706
 13
0.0
 23
0.0
 14
10.0
 24
10.0
 15
10.0
 25
10.0
 16
-1.460931
 26
-4.168734
 36
1.182686
 17
0.0
 27
0.0
 37
0.0
 40
256.053238
 41
1.73348
 42
50.0
 43
0.0
 44
0.0
 50
0.0
 51
0.0
 71
     0
 72
   100
 73
     1
 74
     1
 75
     0
 76
     0
 77
     0
 78
     0
  0
ENDTAB
  0
TABLE
  2
LTYPE
  5
818
100
AcDbSymbolTable
 70
    11
  0
LTYPE
  5
824
100
AcDbSymbolTableRecord
100
AcDbLinetypeTableRecord
  2
BYBLOCK
 70
     0
  3

 72
    65
 73
     0
 40
0.0
  0
LTYPE
  5
825
100
AcDbSymbolTableRecord
100
AcDbLinetypeTableRecord
  2
BYLAYER
 70
     0
  3

 72
    65
 73
     0
 40
0.0
  0
LTYPE
  5
826
100
AcDbSymbolTableRecord
100
AcDbLinetypeTableRecord
  2
CONTINUOUS
 70
     0
  3
Solid line
 72
    65
 73
     0
 40
0.0
  0
LTYPE
  5
832
100
AcDbSymbolTableRecord
100
AcDbLinetypeTableRecord
  2
DASHED
 70
     0
  3
Dashed __ __ __ __ __ __ __ __ __ __ __ __ __ _
 72
    65
 73
     2
 40
19.05
 49
12.7
 74
     0
 49
-6.35
 74
     0
  0
LTYPE
  5
833
100
AcDbSymbolTableRecord
100
AcDbLinetypeTableRecord
  2
CENTER
 70
     0
  3
Center ____ _ ____ _ ____ _ ____ _ ____ _ ____
 72
    65
 73
     4
 40
50.8
 49
31.75
 74
     0
 49
-6.35
 74
     0
 49
6.35
 74
     0
 49
-6.35
 74
     0
  0
LTYPE
  5
834
100
AcDbSymbolTableRecord
100
AcDbLinetypeTableRecord
  2
DASHED2
 70
     0
  3
Dashed (.5x) _ _ _ _ _ _ _ _ _ _ _ _ _ _ _ _ _
 72
    65
 73
     2
 40
9.525
 49
6.35
 74
     0
 49
-3.175
 74
     0
  0
LTYPE
  5
8F0
100
AcDbSymbolTableRecord
100
AcDbLinetypeTableRecord
  2
HIDDEN
 70
     0
  3
_ _ _ _ _ _ _ _ _ _ _ _ _ _ _ _ _ _ _ _ _ _ _
 72
    65
 73
     2
 40
0.375
 49
0.25
 74
     0
 49
-0.125
 74
     0
  0
LTYPE
  5
8F1
100
AcDbSymbolTableRecord
100
AcDbLinetypeTableRecord
  2
CENTRE
 70
     0
  3
____ _ ____ _ ____ _ ____ _ ____ _ ____ _ ____
 72
    65
 73
     4
 40
2.0
 49
1.25
 74
     0
 49
-0.25
 74
     0
 49
0.25
 74
     0
 49
-0.25
 74
     0
  0
LTYPE
  5
8F2
100
AcDbSymbolTableRecord
100
AcDbLinetypeTableRecord
  2
PHANTOM
 70
     0
  3
_____ _ _ _____ _ _ _____ _ _ _____ _ _ ____
 72
    65
 73
     6
 40
2.5
 49
1.25
 74
     0
 49
-0.25
 74
     0
 49
0.25
 74
     0
 49
-0.25
 74
     0
 49
0.25
 74
     0
 49
-0.25
 74
     0
  0
LTYPE
  5
8F3
100
AcDbSymbolTableRecord
100
AcDbLinetypeTableRecord
  2
DOT
 70
     0
  3
...............................................
 72
    65
 73
     2
 40
0.25
 49
0.0
 74
     0
 49
-0.25
 74
     0
  0
LTYPE
  5
8F4
100
AcDbSymbolTableRecord
100
AcDbLinetypeTableRecord
  2
DASHDOT
 70
     0
  3
__ . __ . __ . __ . __ . __ . __ . __ . __ . __
 72
    65
 73
     4
 40
1.0
 49
0.5
 74
     0
 49
-0.25
 74
     0
 49
0.0
 74
     0
 49
-0.25
 74
     0
  0
LTYPE
  5
8F5
100
AcDbSymbolTableRecord
100
AcDbLinetypeTableRecord
  2
BORDER
 70
     0
  3
__ __ . __ __ . __ __ . __ __ . __ __ . __ __
 72
    65
 73
     6
 40
1.75
 49
0.5
 74
     0
 49
-0.25
 74
     0
 49
0.5
 74
     0
 49
-0.25
 74
     0
 49
0.0
 74
     0
 49
-0.25
 74
     0
  0
LTYPE
  5
8F6
100
AcDbSymbolTableRecord
100
AcDbLinetypeTableRecord
  2
DIVIDE
 70
     0
  3
__ . . __ . . __ . . __ . . __ . . __ . . __
 72
    65
 73
     6
 40
1.25
 49
0.5
 74
     0
 49
-0.25
 74
     0
 49
0.0
 74
     0
 49
-0.25
 74
     0
 49
0.0
 74
     0
 49
-0.25
 74
     0
  0
ENDTAB
  0
TABLE
  2
LAYER
  5
815
100
AcDbSymbolTable
 70
     8
  0
LAYER
  5
821
100
AcDbSymbolTableRecord
100
AcDbLayerTableRecord
  2
0
 70
     0
 62
     7
  6
CONTINUOUS
  0
LAYER
  5
838
100
AcDbSymbolTableRecord
100
AcDbLayerTableRecord
  2
DEFPOINTS
 70
     0
 62
     7
  6
CONTINUOUS
  0
LAYER
  5
839
100
AcDbSymbolTableRecord
100
AcDbLayerTableRecord
  2
VZ1
 70
     0
 62
     7
  6
CONTINUOUS
  0
LAYER
  5
83A
100
AcDbSymbolTableRecord
100
AcDbLayerTableRecord
  2
VZRAM
 70
     0
 62
     7
  6
CONTINUOUS
  0
LAYER
  5
8F7
100
AcDbSymbolTableRecord
100
AcDbLayerTableRecord
  2
VZ2
 70
     0
 62
     4
  6
CONTINUOUS
  0
LAYER
  5
8F8
100
AcDbSymbolTableRecord
100
AcDbLayerTableRecord
  2
VZ8
 70
     0
 62
     7
  6
CONTINUOUS
  0
LAYER
  5
F0B
100
AcDbSymbolTableRecord
100
AcDbLayerTableRecord
  2
V0-OBRYS
 70
     0
 62
    90
  6
CONTINUOUS
  0
LAYER
  5
F0C
100
AcDbSymbolTableRecord
100
AcDbLayerTableRecord
  2
V0-KOTY
 70
     0
 62
    41
  6
CONTINUOUS
  0
ENDTAB
  0
TABLE
  2
STYLE
  5
816
100
AcDbSymbolTable
 70
     5
  0
STYLE
  5
822
100
AcDbSymbolTableRecord
100
AcDbTextStyleTableRecord
  2
STANDARD
 70
     0
 40
0.0
 41
0.8
 50
0.0
 71
     0
 42
2.5
  3
txt.shx
  4

  0
STYLE
  5
830
100
AcDbSymbolTableRecord
100
AcDbTextStyleTableRecord
  2

 70
     1
 40
0.0
 41
1.0
 50
0.0
 71
     0
 42
2.5
  3
ltypeshp.shx
  4

  0
STYLE
  5
831
100
AcDbSymbolTableRecord
100
AcDbTextStyleTableRecord
  2
ROMANS
 70
     0
 40
50.0
 41
0.8
 50
0.0
 71
     0
 42
1.0
  3
romans.shx
  4

  0
STYLE
  5
F0D
100
AcDbSymbolTableRecord
100
AcDbTextStyleTableRecord
  2
ED10
 70
     0
 40
10.0
 41
1.0
 50
0.0
 71
     0
 42
20.0
  3
isocp.shx
  4

  0
STYLE
  5
F0E
100
AcDbSymbolTableRecord
100
AcDbTextStyleTableRecord
  2
ED5
 70
     0
 40
10.0
 41
1.0
 50
0.0
 71
     0
 42
15.0
  3
ISOCP.shx
  4

  0
ENDTAB
  0
TABLE
  2
VIEW
  5
819
100
AcDbSymbolTable
 70
     0
  0
ENDTAB
  0
TABLE
  2
UCS
  5
81A
100
AcDbSymbolTable
 70
     3
  0
UCS
  5
845
100
AcDbSymbolTableRecord
100
AcDbUCSTableRecord
  2
1
 70
     0
 10
200.0
 20
0.0000000000000265
 30
276.0
 11
1.0
 21
0.0
 31
0.0
 12
0.0
 22
1.0
 32
0.0
  0
UCS
  5
855
100
AcDbSymbolTableRecord
100
AcDbUCSTableRecord
  2
VO
 70
     0
 10
200.0
 20
0.0000000000000265
 30
276.0
 11
1.0
 21
0.0
 31
0.0
 12
0.0
 22
1.0
 32
0.0
  0
UCS
  5
863
100
AcDbSymbolTableRecord
100
AcDbUCSTableRecord
  2
PUVUCS
 70
     0
 10
0.0
 20
0.0
 30
0.0
 11
1.0
 21
0.0
 31
0.0
 12
0.0
 22
1.0
 32
0.0
  0
ENDTAB
  0
TABLE
  2
APPID
  5
81C
100
AcDbSymbolTable
 70
     1
  0
APPID
  5
823
100
AcDbSymbolTableRecord
100
AcDbRegAppTableRecord
  2
ACAD
 70
     0
  0
ENDTAB
  0
TABLE
  2
DIMSTYLE
  5
81D
100
AcDbSymbolTable
 70
     3
  0
DIMSTYLE
105
836
100
AcDbSymbolTableRecord
100
AcDbDimStyleTableRecord
  2
STANDARD
 70
     0
  3

  4

  5

  6

  7

 40
1.0
 41
0.18
 42
0.0625
 43
0.38
 44
0.18
 45
0.0
 46
0.0
 47
0.0
 48
0.0
140
0.18
141
0.09
142
0.0
143
25.4
144
1.0
145
0.0
146
1.0
147
0.09
 71
     0
 72
     0
 73
     1
 74
     1
 75
     0
 76
     0
 77
     0
 78
     0
170
     0
171
     2
172
     0
173
     0
174
     0
175
     0
176
     0
177
     0
178
     0
270
     2
271
     4
272
     4
273
     2
274
     4
340
831
275
     0
280
     0
281
     0
282
     0
283
     1
284
     8
285
     8
286
     8
287
     5
288
     0
  0
DIMSTYLE
105
837
100
AcDbSymbolTableRecord
100
AcDbDimStyleTableRecord
  2
STANEK
 70
     0
  3

  4

  5

  6
_OBLIQUE
  7
_OBLIQUE
 40
0.0
 41
2.0
 42
0.625
 43
3.75
 44
1.0
 45
1.0
 46
0.0
 47
0.0
 48
0.0
140
2.2
141
-100.0
142
0.0
143
0.0394
144
2.2
145
2.0
146
2.2
147
0.625
 71
     0
 72
     0
 73
     0
 74
     0
 75
     0
 76
     0
 77
     1
 78
     8
170
     0
171
     4
172
     1
173
     1
174
     0
175
     0
176
     1
177
     1
178
     1
270
     2
271
     4
272
     4
273
     2
274
     4
340
831
275
     0
280
     0
281
     0
282
     0
283
     1
284
     8
285
     8
286
     8
287
     5
288
     0
  0
DIMSTYLE
105
F0F
100
AcDbSymbolTableRecord
100
AcDbDimStyleTableRecord
  2
ED5
 70
     0
  3

  4

  5

  6
_OPEN
  7
_OPEN
 40
0.0
 41
12.0
 42
1.0
 43
3.75
 44
1.25
 45
0.0
 46
0.0
 47
0.0
 48
0.0
140
10.0
141
3.0
142
0.0
143
0.0394
144
1.0
145
0.0
146
1.0
147
1.5
 71
     0
 72
     0
 73
     0
 74
     0
 75
     0
 76
     0
 77
     1
 78
     8
170
     0
171
     4
172
     1
173
     1
174
     0
175
     0
176
     0
177
     0
178
     0
270
     2
271
     0
272
     1
273
     8
274
     4
340
F0E
275
     0
280
     0
281
     0
282
     0
283
     1
284
     8
285
     0
286
     0
287
     3
288
     0
  0
ENDTAB
  0
TABLE
  2
BLOCK_RECORD
  5
814
100
AcDbSymbolTable
 70
    15
  0
BLOCK_RECORD
  5
82A
100
AcDbSymbolTableRecord
100
AcDbBlockTableRecord
  2
*MODEL_SPACE
  0
BLOCK_RECORD
  5
827
100
AcDbSymbolTableRecord
100
AcDbBlockTableRecord
  2
*PAPER_SPACE
  0
BLOCK_RECORD
  5
82F
100
AcDbSymbolTableRecord
100
AcDbBlockTableRecord
  2
_OBLIQUE
  0
BLOCK_RECORD
  5
866
100
AcDbSymbolTableRecord
100
AcDbBlockTableRecord
  2
*X1
  0
BLOCK_RECORD
  5
87C
100
AcDbSymbolTableRecord
100
AcDbBlockTableRecord
  2
SMERA
  0
BLOCK_RECORD
  5
8B0
100
AcDbSymbolTableRecord
100
AcDbBlockTableRecord
  2
ZNVE
  0
BLOCK_RECORD
  5
8BF
100
AcDbSymbolTableRecord
100
AcDbBlockTableRecord
  2
ELE123V103_0
  0
BLOCK_RECORD
  5
8DC
100
AcDbSymbolTableRecord
100
AcDbBlockTableRecord
  2
ELE123V103_1
  0
BLOCK_RECORD
  5
8F9
100
AcDbSymbolTableRecord
100
AcDbBlockTableRecord
  2
VE011
  0
BLOCK_RECORD
  5
958
100
AcDbSymbolTableRecord
100
AcDbBlockTableRecord
  2
ELE123V103_2
  0
BLOCK_RECORD
  5
982
100
AcDbSymbolTableRecord
100
AcDbBlockTableRecord
  2
ELE123V103_3
  0
BLOCK_RECORD
  5
997
100
AcDbSymbolTableRecord
100
AcDbBlockTableRecord
  2
ELE123V103_4
  0
BLOCK_RECORD
  5
B13
100
AcDbSymbolTableRecord
100
AcDbBlockTableRecord
  2
VOMRIZ-APL
  0
BLOCK_RECORD
  5
C1E
100
AcDbSymbolTableRecord
100
AcDbBlockTableRecord
  2
VOVRTULE
  0
BLOCK_RECORD
  5
E8E
100
AcDbSymbolTableRecord
100
AcDbBlockTableRecord
  2
A
  0
BLOCK_RECORD
  5
F05
100
AcDbSymbolTableRecord
100
AcDbBlockTableRecord
  2
_OPEN
  0
BLOCK_RECORD
  5
F10
100
AcDbSymbolTableRecord
100
AcDbBlockTableRecord
  2
MRIZ-KRUH2
  0
ENDTAB
  0
ENDSEC
  0
SECTION
  2
BLOCKS
  0
BLOCK
  5
83D
100
AcDbEntity
  8
0
 62
     1
100
AcDbBlockBegin
  2
*MODEL_SPACE
 70
     0
 10
0.0
 20
0.0
 30
0.0
  3
*MODEL_SPACE
  1

  0
ENDBLK
  5
83E
100
AcDbEntity
  8
0
 62
     1
100
AcDbBlockEnd
  0
BLOCK
  5
83B
100
AcDbEntity
 67
     1
  8
0
 62
     1
100
AcDbBlockBegin
  2
*PAPER_SPACE
 70
     0
 10
0.0
 20
0.0
 30
0.0
  3
*PAPER_SPACE
  1

  0
ENDBLK
  5
83C
100
AcDbEntity
 67
     1
  8
0
 62
     1
100
AcDbBlockEnd
  0
BLOCK
  5
25
100
AcDbEntity
  8
0
100
AcDbBlockBegin
  2
_OBLIQUE
 70
     0
 10
0.0
 20
0.0
 30
0.0
  3
_OBLIQUE
  1

  0
LINE
  5
26
100
AcDbEntity
  8
0
  6
BYBLOCK
 62
     0
100
AcDbLine
 10
-0.5
 20
-0.5
 30
0.0
 11
0.5
 21
0.5
 31
0.0
  0
ENDBLK
  5
27
100
AcDbEntity
  8
0
100
AcDbBlockEnd
  0
BLOCK
  5
87A
100
AcDbEntity
  8
0
100
AcDbBlockBegin
  2
*X1
 70
     1
 10
0.0
 20
0.0
 30
0.0
  3
*X1
  1

  0
LINE
  5
867
100
AcDbEntity
  8
0
  6
CONTINUOUS
 62
     0
100
AcDbLine
 10
-0.455828
 20
1.956643
 30
3.695506
 11
0.455828
 21
1.956643
 31
3.394703
210
-0.0000000000000035
220
-1.0
230
0.0000000000000229
  0
LINE
  5
868
100
AcDbEntity
  8
0
  6
CONTINUOUS
 62
     0
100
AcDbLine
 10
-0.469015
 20
1.956643
 30
3.647206
 11
0.437682
 21
1.956643
 31
3.348039
210
-0.0000000000000035
220
-1.0
230
0.0000000000000229
  0
LINE
  5
869
100
AcDbEntity
  8
0
  6
CONTINUOUS
 62
     0
100
AcDbLine
 10
-0.47716
 20
1.956643
 30
3.597242
 11
0.414493
 21
1.956643
 31
3.303039
210
-0.0000000000000035
220
-1.0
230
0.0000000000000229
  0
LINE
  5
86A
100
AcDbEntity
  8
0
  6
CONTINUOUS
 62
     0
100
AcDbLine
 10
-0.48
 20
1.956643
 30
3.545527
 11
0.385999
 21
1.956643
 31
3.259789
210
-0.0000000000000035
220
-1.0
230
0.0000000000000229
  0
LINE
  5
86B
100
AcDbEntity
  8
0
  6
CONTINUOUS
 62
     0
100
AcDbLine
 10
-0.477042
 20
1.956643
 30
3.4919
 11
0.351708
 21
1.956643
 31
3.218452
210
-0.0000000000000035
220
-1.0
230
0.0000000000000229
  0
LINE
  5
86C
100
AcDbEntity
  8
0
  6
CONTINUOUS
 62
     0
100
AcDbLine
 10
-0.467456
 20
1.956643
 30
3.436085
 11
0.310788
 21
1.956643
 31
3.179303
210
-0.0000000000000035
220
-1.0
230
0.0000000000000229
  0
LINE
  5
86D
100
AcDbEntity
  8
0
  6
CONTINUOUS
 62
     0
100
AcDbLine
 10
-0.449832
 20
1.956643
 30
3.377619
 11
0.26183
 21
1.956643
 31
3.142805
210
-0.0000000000000035
220
-1.0
230
0.0000000000000229
  0
LINE
  5
86E
100
AcDbEntity
  8
0
  6
CONTINUOUS
 62
     0
100
AcDbLine
 10
-0.421607
 20
1.956643
 30
3.315655
 11
0.202272
 21
1.956643
 31
3.109805
210
-0.0000000000000035
220
-1.0
230
0.0000000000000229
  0
LINE
  5
86F
100
AcDbEntity
  8
0
  6
CONTINUOUS
 62
     0
100
AcDbLine
 10
-0.377303
 20
1.956643
 30
3.248385
 11
0.126634
 21
1.956643
 31
3.08211
210
-0.0000000000000035
220
-1.0
230
0.0000000000000229
  0
LINE
  5
870
100
AcDbEntity
  8
0
  6
CONTINUOUS
 62
     0
100
AcDbLine
 10
-0.299623
 20
1.956643
 30
3.170103
 11
0.01762
 21
1.956643
 31
3.065428
210
-0.0000000000000035
220
-1.0
230
0.0000000000000229
  0
LINE
  5
871
100
AcDbEntity
  8
0
  6
CONTINUOUS
 62
     0
100
AcDbLine
 10
-0.437682
 20
1.956643
 30
3.74217
 11
0.469015
 21
1.956643
 31
3.443003
210
-0.0000000000000035
220
-1.0
230
0.0000000000000229
  0
LINE
  5
872
100
AcDbEntity
  8
0
  6
CONTINUOUS
 62
     0
100
AcDbLine
 10
-0.414493
 20
1.956643
 30
3.78717
 11
0.47716
 21
1.956643
 31
3.492967
210
-0.0000000000000035
220
-1.0
230
0.0000000000000229
  0
LINE
  5
873
100
AcDbEntity
  8
0
  6
CONTINUOUS
 62
     0
100
AcDbLine
 10
-0.385999
 20
1.956643
 30
3.83042
 11
0.48
 21
1.956643
 31
3.544682
210
-0.0000000000000035
220
-1.0
230
0.0000000000000229
  0
LINE
  5
874
100
AcDbEntity
  8
0
  6
CONTINUOUS
 62
     0
100
AcDbLine
 10
-0.351708
 20
1.956643
 30
3.871757
 11
0.477042
 21
1.956643
 31
3.598309
210
-0.0000000000000035
220
-1.0
230
0.0000000000000229
  0
LINE
  5
875
100
AcDbEntity
  8
0
  6
CONTINUOUS
 62
     0
100
AcDbLine
 10
-0.310788
 20
1.956643
 30
3.910906
 11
0.467456
 21
1.956643
 31
3.654124
210
-0.0000000000000035
220
-1.0
230
0.0000000000000229
  0
LINE
  5
876
100
AcDbEntity
  8
0
  6
CONTINUOUS
 62
     0
100
AcDbLine
 10
-0.26183
 20
1.956643
 30
3.947404
 11
0.449832
 21
1.956643
 31
3.71259
210
-0.0000000000000035
220
-1.0
230
0.0000000000000229
  0
LINE
  5
877
100
AcDbEntity
  8
0
  6
CONTINUOUS
 62
     0
100
AcDbLine
 10
-0.202272
 20
1.956643
 30
3.980404
 11
0.421607
 21
1.956643
 31
3.774554
210
-0.0000000000000035
220
-1.0
230
0.0000000000000229
  0
LINE
  5
878
100
AcDbEntity
  8
0
  6
CONTINUOUS
 62
     0
100
AcDbLine
 10
-0.126634
 20
1.956643
 30
4.008099
 11
0.377303
 21
1.956643
 31
3.841824
210
-0.0000000000000035
220
-1.0
230
0.0000000000000229
  0
LINE
  5
879
100
AcDbEntity
  8
0
  6
CONTINUOUS
 62
     0
100
AcDbLine
 10
-0.01762
 20
1.956643
 30
4.024781
 11
0.299623
 21
1.956643
 31
3.920106
210
-0.0000000000000035
220
-1.0
230
0.0000000000000229
  0
ENDBLK
  5
87B
100
AcDbEntity
  8
0
100
AcDbBlockEnd
  0
BLOCK
  5
8AC
100
AcDbEntity
  8
0
100
AcDbBlockBegin
  2
SMERA
 70
     0
 10
0.0
 20
0.0
 30
0.0
  3
SMERA
  1

  0
POLYLINE
  5
87D
100
AcDbEntity
  8
0
  6
CONTINUOUS
 62
     2
100
AcDbPolygonMesh
 66
     1
 10
0.0
 20
0.0
 30
0.0
 70
    17
 71
     6
 72
     7
  0
VERTEX
  5
87E
100
AcDbEntity
  8
0
  6
CONTINUOUS
 62
     2
100
AcDbVertex
100
AcDbPolygonMeshVertex
 10
0.505343
 20
0.0
 30
1.992337
 70
    64
  0
VERTEX
  5
87F
100
AcDbEntity
  8
0
  6
CONTINUOUS
 62
     2
100
AcDbVertex
100
AcDbPolygonMeshVertex
 10
0.421119
 20
0.0
 30
2.449644
 70
    64
  0
VERTEX
  5
880
100
AcDbEntity
  8
0
  6
CONTINUOUS
 62
     2
100
AcDbVertex
100
AcDbPolygonMeshVertex
 10
0.336896
 20
0.0
 30
2.90695
 70
    64
  0
VERTEX
  5
881
100
AcDbEntity
  8
0
  6
CONTINUOUS
 62
     2
100
AcDbVertex
100
AcDbPolygonMeshVertex
 10
0.252672
 20
0.0
 30
3.364257
 70
    64
  0
VERTEX
  5
882
100
AcDbEntity
  8
0
  6
CONTINUOUS
 62
     2
100
AcDbVertex
100
AcDbPolygonMeshVertex
 10
0.168448
 20
0.0
 30
3.821564
 70
    64
  0
VERTEX
  5
883
100
AcDbEntity
  8
0
  6
CONTINUOUS
 62
     2
100
AcDbVertex
100
AcDbPolygonMeshVertex
 10
0.084224
 20
0.0
 30
4.278871
 70
    64
  0
VERTEX
  5
884
100
AcDbEntity
  8
0
  6
CONTINUOUS
 62
     2
100
AcDbVertex
100
AcDbPolygonMeshVertex
 10
0.0
 20
0.0
 30
4.736178
 70
    64
  0
VERTEX
  5
885
100
AcDbEntity
  8
0
  6
CONTINUOUS
 62
     2
100
AcDbVertex
100
AcDbPolygonMeshVertex
 10
0.252672
 20
-0.43764
 30
1.992337
 70
    64
  0
VERTEX
  5
886
100
AcDbEntity
  8
0
  6
CONTINUOUS
 62
     2
100
AcDbVertex
100
AcDbPolygonMeshVertex
 10
0.21056
 20
-0.3647
 30
2.449644
 70
    64
  0
VERTEX
  5
887
100
AcDbEntity
  8
0
  6
CONTINUOUS
 62
     2
100
AcDbVertex
100
AcDbPolygonMeshVertex
 10
0.168448
 20
-0.29176
 30
2.90695
 70
    64
  0
VERTEX
  5
888
100
AcDbEntity
  8
0
  6
CONTINUOUS
 62
     2
100
AcDbVertex
100
AcDbPolygonMeshVertex
 10
0.126336
 20
-0.21882
 30
3.364257
 70
    64
  0
VERTEX
  5
889
100
AcDbEntity
  8
0
  6
CONTINUOUS
 62
     2
100
AcDbVertex
100
AcDbPolygonMeshVertex
 10
0.084224
 20
-0.14588
 30
3.821564
 70
    64
  0
VERTEX
  5
88A
100
AcDbEntity
  8
0
  6
CONTINUOUS
 62
     2
100
AcDbVertex
100
AcDbPolygonMeshVertex
 10
0.042112
 20
-0.07294
 30
4.278871
 70
    64
  0
VERTEX
  5
88B
100
AcDbEntity
  8
0
  6
CONTINUOUS
 62
     2
100
AcDbVertex
100
AcDbPolygonMeshVertex
 10
0.0
 20
0.0
 30
4.736178
 70
    64
  0
VERTEX
  5
88C
100
AcDbEntity
  8
0
  6
CONTINUOUS
 62
     2
100
AcDbVertex
100
AcDbPolygonMeshVertex
 10
-0.252672
 20
-0.43764
 30
1.992337
 70
    64
  0
VERTEX
  5
88D
100
AcDbEntity
  8
0
  6
CONTINUOUS
 62
     2
100
AcDbVertex
100
AcDbPolygonMeshVertex
 10
-0.21056
 20
-0.3647
 30
2.449644
 70
    64
  0
VERTEX
  5
88E
100
AcDbEntity
  8
0
  6
CONTINUOUS
 62
     2
100
AcDbVertex
100
AcDbPolygonMeshVertex
 10
-0.168448
 20
-0.29176
 30
2.90695
 70
    64
  0
VERTEX
  5
88F
100
AcDbEntity
  8
0
  6
CONTINUOUS
 62
     2
100
AcDbVertex
100
AcDbPolygonMeshVertex
 10
-0.126336
 20
-0.21882
 30
3.364257
 70
    64
  0
VERTEX
  5
890
100
AcDbEntity
  8
0
  6
CONTINUOUS
 62
     2
100
AcDbVertex
100
AcDbPolygonMeshVertex
 10
-0.084224
 20
-0.14588
 30
3.821564
 70
    64
  0
VERTEX
  5
891
100
AcDbEntity
  8
0
  6
CONTINUOUS
 62
     2
100
AcDbVertex
100
AcDbPolygonMeshVertex
 10
-0.042112
 20
-0.07294
 30
4.278871
 70
    64
  0
VERTEX
  5
892
100
AcDbEntity
  8
0
  6
CONTINUOUS
 62
     2
100
AcDbVertex
100
AcDbPolygonMeshVertex
 10
0.0
 20
0.0
 30
4.736178
 70
    64
  0
VERTEX
  5
893
100
AcDbEntity
  8
0
  6
CONTINUOUS
 62
     2
100
AcDbVertex
100
AcDbPolygonMeshVertex
 10
-0.505343
 20
0.0
 30
1.992337
 70
    64
  0
VERTEX
  5
894
100
AcDbEntity
  8
0
  6
CONTINUOUS
 62
     2
100
AcDbVertex
100
AcDbPolygonMeshVertex
 10
-0.421119
 20
0.0
 30
2.449644
 70
    64
  0
VERTEX
  5
895
100
AcDbEntity
  8
0
  6
CONTINUOUS
 62
     2
100
AcDbVertex
100
AcDbPolygonMeshVertex
 10
-0.336896
 20
0.0
 30
2.90695
 70
    64
  0
VERTEX
  5
896
100
AcDbEntity
  8
0
  6
CONTINUOUS
 62
     2
100
AcDbVertex
100
AcDbPolygonMeshVertex
 10
-0.252672
 20
0.0
 30
3.364257
 70
    64
  0
VERTEX
  5
897
100
AcDbEntity
  8
0
  6
CONTINUOUS
 62
     2
100
AcDbVertex
100
AcDbPolygonMeshVertex
 10
-0.168448
 20
0.0
 30
3.821564
 70
    64
  0
VERTEX
  5
898
100
AcDbEntity
  8
0
  6
CONTINUOUS
 62
     2
100
AcDbVertex
100
AcDbPolygonMeshVertex
 10
-0.084224
 20
0.0
 30
4.278871
 70
    64
  0
VERTEX
  5
899
100
AcDbEntity
  8
0
  6
CONTINUOUS
 62
     2
100
AcDbVertex
100
AcDbPolygonMeshVertex
 10
0.0
 20
0.0
 30
4.736178
 70
    64
  0
VERTEX
  5
89A
100
AcDbEntity
  8
0
  6
CONTINUOUS
 62
     2
100
AcDbVertex
100
AcDbPolygonMeshVertex
 10
-0.252672
 20
0.43764
 30
1.992337
 70
    64
  0
VERTEX
  5
89B
100
AcDbEntity
  8
0
  6
CONTINUOUS
 62
     2
100
AcDbVertex
100
AcDbPolygonMeshVertex
 10
-0.21056
 20
0.3647
 30
2.449644
 70
    64
  0
VERTEX
  5
89C
100
AcDbEntity
  8
0
  6
CONTINUOUS
 62
     2
100
AcDbVertex
100
AcDbPolygonMeshVertex
 10
-0.168448
 20
0.29176
 30
2.90695
 70
    64
  0
VERTEX
  5
89D
100
AcDbEntity
  8
0
  6
CONTINUOUS
 62
     2
100
AcDbVertex
100
AcDbPolygonMeshVertex
 10
-0.126336
 20
0.21882
 30
3.364257
 70
    64
  0
VERTEX
  5
89E
100
AcDbEntity
  8
0
  6
CONTINUOUS
 62
     2
100
AcDbVertex
100
AcDbPolygonMeshVertex
 10
-0.084224
 20
0.14588
 30
3.821564
 70
    64
  0
VERTEX
  5
89F
100
AcDbEntity
  8
0
  6
CONTINUOUS
 62
     2
100
AcDbVertex
100
AcDbPolygonMeshVertex
 10
-0.042112
 20
0.07294
 30
4.278871
 70
    64
  0
VERTEX
  5
8A0
100
AcDbEntity
  8
0
  6
CONTINUOUS
 62
     2
100
AcDbVertex
100
AcDbPolygonMeshVertex
 10
0.0
 20
0.0
 30
4.736178
 70
    64
  0
VERTEX
  5
8A1
100
AcDbEntity
  8
0
  6
CONTINUOUS
 62
     2
100
AcDbVertex
100
AcDbPolygonMeshVertex
 10
0.252672
 20
0.43764
 30
1.992337
 70
    64
  0
VERTEX
  5
8A2
100
AcDbEntity
  8
0
  6
CONTINUOUS
 62
     2
100
AcDbVertex
100
AcDbPolygonMeshVertex
 10
0.21056
 20
0.3647
 30
2.449644
 70
    64
  0
VERTEX
  5
8A3
100
AcDbEntity
  8
0
  6
CONTINUOUS
 62
     2
100
AcDbVertex
100
AcDbPolygonMeshVertex
 10
0.168448
 20
0.29176
 30
2.90695
 70
    64
  0
VERTEX
  5
8A4
100
AcDbEntity
  8
0
  6
CONTINUOUS
 62
     2
100
AcDbVertex
100
AcDbPolygonMeshVertex
 10
0.126336
 20
0.21882
 30
3.364257
 70
    64
  0
VERTEX
  5
8A5
100
AcDbEntity
  8
0
  6
CONTINUOUS
 62
     2
100
AcDbVertex
100
AcDbPolygonMeshVertex
 10
0.084224
 20
0.14588
 30
3.821564
 70
    64
  0
VERTEX
  5
8A6
100
AcDbEntity
  8
0
  6
CONTINUOUS
 62
     2
100
AcDbVertex
100
AcDbPolygonMeshVertex
 10
0.042112
 20
0.07294
 30
4.278871
 70
    64
  0
VERTEX
  5
8A7
100
AcDbEntity
  8
0
  6
CONTINUOUS
 62
     2
100
AcDbVertex
100
AcDbPolygonMeshVertex
 10
0.0
 20
0.0
 30
4.736178
 70
    64
  0
SEQEND
  5
8A8
100
AcDbEntity
  8
0
  6
CONTINUOUS
 62
     2
  0
CIRCLE
  5
8A9
100
AcDbEntity
  8
0
  6
CONTINUOUS
 62
     5
100
AcDbCircle
 10
0.0
 20
0.0
 30
2.000272
 40
0.528
  0
INSERT
  5
8AA
100
AcDbEntity
  8
0
  6
CONTINUOUS
 62
     5
100
AcDbBlockReference
  2
*X1
 10
0.0
 20
4.048296
 30
-3.899615
 41
1.1
 42
1.1
 43
1.1
 50
180.0
210
-1.0
220
0.0
230
0.0
1001
ACAD
1000
HATCH
1002
{
1070
    16
1000
ANSI31
1040
0.4
1040
2.03749
1002
}
  0
LINE
  5
8AB
100
AcDbEntity
  8
0
  6
CONTINUOUS
 62
     2
100
AcDbLine
 10
0.0
 20
0.0
 30
0.0
 11
0.0
 21
0.0
 31
4.736178
210
0.0
220
1.0
230
0.0
  0
ENDBLK
  5
8AD
100
AcDbEntity
  8
0
100
AcDbBlockEnd
  0
BLOCK
  5
8B5
100
AcDbEntity
  8
0
 62
     2
100
AcDbBlockBegin
  2
ZNVE
 70
     0
 10
0.0
 20
0.0
 30
0.0
  3
ZNVE
  1

  0
CIRCLE
  5
8B1
100
AcDbEntity
  8
0
  6
CONTINUOUS
 62
     7
100
AcDbCircle
 10
0.0
 20
0.0
 30
0.0
 40
0.5
  0
LINE
  5
8B2
100
AcDbEntity
  8
0
  6
CONTINUOUS
 62
     7
100
AcDbLine
 10
0.5
 20
0.0
 30
0.0
 11
-0.25
 21
0.433013
 31
0.0
  0
LINE
  5
8B3
100
AcDbEntity
  8
0
  6
CONTINUOUS
 62
     7
100
AcDbLine
 10
0.5
 20
0.0
 30
0.0
 11
-0.25
 21
-0.433013
 31
0.0
  0
LINE
  5
8B4
100
AcDbEntity
  8
0
  6
CONTINUOUS
 62
     7
100
AcDbLine
 10
-0.25
 20
0.433013
 30
0.0
 11
-0.25
 21
-0.433013
 31
0.0
  0
ENDBLK
  5
8B6
100
AcDbEntity
  8
0
 62
     2
100
AcDbBlockEnd
  0
BLOCK
  5
8C0
100
AcDbEntity
  8
0
100
AcDbBlockBegin
  2
ELE123V103_0
 70
     2
 10
0.0
 20
0.0
 30
0.0
  3
ELE123V103_0
  1

  0
CIRCLE
  5
8C1
100
AcDbEntity
  8
VZ1
  6
CONTINUOUS
 62
     2
100
AcDbCircle
 39
176.0
 10
0.0
 20
0.0
 30
0.0
 40
177.5
  0
INSERT
  5
8C2
100
AcDbEntity
  8
VZ1
  6
CONTINUOUS
 62
     2
100
AcDbBlockReference
  2
ZNVE
 10
0.0
 20
88.0
 30
187.5
 41
140.8
 42
140.8
 43
140.8
 50
270.0
210
1.0
220
0.0
230
-0.0000000000000002
  0
INSERT
  5
8C3
100
AcDbEntity
  8
VZ1
  6
CONTINUOUS
 62
     2
100
AcDbBlockReference
  2
ZNVE
 10
0.0
 20
88.0
 30
187.5
 41
140.8
 42
140.8
 43
140.8
 50
270.0
210
0.0000000000000001
220
1.0
230
-0.0000000000000002
  0
INSERT
  5
8C4
100
AcDbEntity
  8
VZ1
  6
CONTINUOUS
 62
     2
100
AcDbBlockReference
  2
ZNVE
 10
0.0
 20
88.0
 30
187.5
 41
140.8
 42
140.8
 43
140.8
 50
270.0
210
-1.0
220
0.0000000000000001
230
-0.0000000000000002
  0
INSERT
  5
8C5
100
AcDbEntity
  8
VZ1
  6
CONTINUOUS
 62
     2
100
AcDbBlockReference
  2
ZNVE
 10
0.0
 20
88.0
 30
187.5
 41
140.8
 42
140.8
 43
140.8
 50
270.0
210
-0.0000000000000002
220
-1.0
230
-0.0000000000000002
  0
ATTDEF
  5
8C6
100
AcDbEntity
  8
VZ1
  6
CONTINUOUS
 62
     2
100
AcDbText
 10
0.0
 20
0.0
 30
0.0
 40
1.0
  1
3383
 41
0.8
  7
ROMANS
100
AcDbAttributeDefinition
  3

  2
VETA
 70
     1
  0
ATTDEF
  5
8C7
100
AcDbEntity
  8
VZ1
  6
CONTINUOUS
 62
     2
100
AcDbText
 10
0.0
 20
0.0
 30
0.0
 40
1.0
  1

 41
0.8
  7
ROMANS
100
AcDbAttributeDefinition
  3

  2
POS
 70
     1
  0
ATTDEF
  5
8C8
100
AcDbEntity
  8
VZ1
  6
CONTINUOUS
 62
     2
100
AcDbText
 10
0.0
 20
0.0
 30
0.0
 40
1.0
  1
TCFB/4-355 H
 41
0.8
  7
ROMANS
100
AcDbAttributeDefinition
  3

  2
NAZEV
 70
     1
  0
ATTDEF
  5
8C9
100
AcDbEntity
  8
VZ1
  6
CONTINUOUS
 62
     2
100
AcDbText
 10
0.0
 20
0.0
 30
0.0
 40
1.0
  1

 41
0.8
  7
ROMANS
100
AcDbAttributeDefinition
  3

  2
TYP
 70
     1
  0
ENDBLK
  5
8CA
100
AcDbEntity
  8
0
100
AcDbBlockEnd
  0
BLOCK
  5
8DD
100
AcDbEntity
  8
0
100
AcDbBlockBegin
  2
ELE123V103_1
 70
     2
 10
0.0
 20
0.0
 30
0.0
  3
ELE123V103_1
  1

  0
CIRCLE
  5
8DE
100
AcDbEntity
  8
VZ1
  6
CONTINUOUS
 62
     2
100
AcDbCircle
 39
176.0
 10
0.0
 20
0.0
 30
0.0
 40
177.5
  0
INSERT
  5
8DF
100
AcDbEntity
  8
VZ1
  6
CONTINUOUS
 62
     2
100
AcDbBlockReference
  2
ZNVE
 10
0.0
 20
88.0
 30
187.5
 41
140.8
 42
140.8
 43
140.8
 50
270.0
210
1.0
220
0.0
230
-0.0000000000000002
  0
INSERT
  5
8E0
100
AcDbEntity
  8
VZ1
  6
CONTINUOUS
 62
     2
100
AcDbBlockReference
  2
ZNVE
 10
0.0
 20
88.0
 30
187.5
 41
140.8
 42
140.8
 43
140.8
 50
270.0
210
0.0000000000000001
220
1.0
230
-0.0000000000000002
  0
INSERT
  5
8E1
100
AcDbEntity
  8
VZ1
  6
CONTINUOUS
 62
     2
100
AcDbBlockReference
  2
ZNVE
 10
0.0
 20
88.0
 30
187.5
 41
140.8
 42
140.8
 43
140.8
 50
270.0
210
-1.0
220
0.0000000000000001
230
-0.0000000000000002
  0
INSERT
  5
8E2
100
AcDbEntity
  8
VZ1
  6
CONTINUOUS
 62
     2
100
AcDbBlockReference
  2
ZNVE
 10
0.0
 20
88.0
 30
187.5
 41
140.8
 42
140.8
 43
140.8
 50
270.0
210
-0.0000000000000002
220
-1.0
230
-0.0000000000000002
  0
ATTDEF
  5
8E3
100
AcDbEntity
  8
VZ1
  6
CONTINUOUS
 62
     2
100
AcDbText
 10
0.0
 20
0.0
 30
0.0
 40
1.0
  1
3383
 41
0.8
  7
ROMANS
100
AcDbAttributeDefinition
  3

  2
VETA
 70
     1
  0
ATTDEF
  5
8E4
100
AcDbEntity
  8
VZ1
  6
CONTINUOUS
 62
     2
100
AcDbText
 10
0.0
 20
0.0
 30
0.0
 40
1.0
  1

 41
0.8
  7
ROMANS
100
AcDbAttributeDefinition
  3

  2
POS
 70
     1
  0
ATTDEF
  5
8E5
100
AcDbEntity
  8
VZ1
  6
CONTINUOUS
 62
     2
100
AcDbText
 10
0.0
 20
0.0
 30
0.0
 40
1.0
  1
TCFB/4-355 H
 41
0.8
  7
ROMANS
100
AcDbAttributeDefinition
  3

  2
NAZEV
 70
     1
  0
ATTDEF
  5
8E6
100
AcDbEntity
  8
VZ1
  6
CONTINUOUS
 62
     2
100
AcDbText
 10
0.0
 20
0.0
 30
0.0
 40
1.0
  1

 41
0.8
  7
ROMANS
100
AcDbAttributeDefinition
  3

  2
TYP
 70
     1
  0
ENDBLK
  5
8E7
100
AcDbEntity
  8
0
100
AcDbBlockEnd
  0
BLOCK
  5
951
100
AcDbEntity
  8
0
 62
     2
100
AcDbBlockBegin
  2
VE011
 70
     0
 10
0.0
 20
0.0
 30
0.0
  3
VE011
  1

  0
LINE
  5
8FA
100
AcDbEntity
  8
0
  6
CONTINUOUS
 62
     7
100
AcDbLine
 10
0.0
 20
0.0
 30
0.0
 11
0.0
 21
0.0
 31
1.0
  0
POLYLINE
  5
8FB
100
AcDbEntity
  8
0
  6
CONTINUOUS
 62
     7
100
AcDbPolygonMesh
 66
     1
 10
0.0
 20
0.0
 30
0.0
 70
    48
 71
     2
 72
     8
  0
VERTEX
  5
8FC
100
AcDbEntity
  8
0
  6
CONTINUOUS
 62
     7
100
AcDbVertex
100
AcDbPolygonMeshVertex
 10
0.5
 20
0.0
 30
0.0
 70
    64
  0
VERTEX
  5
8FD
100
AcDbEntity
  8
0
  6
CONTINUOUS
 62
     7
100
AcDbVertex
100
AcDbPolygonMeshVertex
 10
0.353553
 20
0.353553
 30
0.0
 70
    64
  0
VERTEX
  5
8FE
100
AcDbEntity
  8
0
  6
CONTINUOUS
 62
     7
100
AcDbVertex
100
AcDbPolygonMeshVertex
 10
0.0
 20
0.5
 30
0.0
 70
    64
  0
VERTEX
  5
8FF
100
AcDbEntity
  8
0
  6
CONTINUOUS
 62
     7
100
AcDbVertex
100
AcDbPolygonMeshVertex
 10
-0.353553
 20
0.353553
 30
0.0
 70
    64
  0
VERTEX
  5
900
100
AcDbEntity
  8
0
  6
CONTINUOUS
 62
     7
100
AcDbVertex
100
AcDbPolygonMeshVertex
 10
-0.5
 20
0.0
 30
0.0
 70
    64
  0
VERTEX
  5
901
100
AcDbEntity
  8
0
  6
CONTINUOUS
 62
     7
100
AcDbVertex
100
AcDbPolygonMeshVertex
 10
-0.353553
 20
-0.353553
 30
0.0
 70
    64
  0
VERTEX
  5
902
100
AcDbEntity
  8
0
  6
CONTINUOUS
 62
     7
100
AcDbVertex
100
AcDbPolygonMeshVertex
 10
0.0
 20
-0.5
 30
0.0
 70
    64
  0
VERTEX
  5
903
100
AcDbEntity
  8
0
  6
CONTINUOUS
 62
     7
100
AcDbVertex
100
AcDbPolygonMeshVertex
 10
0.353553
 20
-0.353553
 30
0.0
 70
    64
  0
VERTEX
  5
904
100
AcDbEntity
  8
0
  6
CONTINUOUS
 62
     7
100
AcDbVertex
100
AcDbPolygonMeshVertex
 10
0.7
 20
0.0
 30
0.22
 70
    64
  0
VERTEX
  5
905
100
AcDbEntity
  8
0
  6
CONTINUOUS
 62
     7
100
AcDbVertex
100
AcDbPolygonMeshVertex
 10
0.494975
 20
0.494975
 30
0.22
 70
    64
  0
VERTEX
  5
906
100
AcDbEntity
  8
0
  6
CONTINUOUS
 62
     7
100
AcDbVertex
100
AcDbPolygonMeshVertex
 10
0.0
 20
0.7
 30
0.22
 70
    64
  0
VERTEX
  5
907
100
AcDbEntity
  8
0
  6
CONTINUOUS
 62
     7
100
AcDbVertex
100
AcDbPolygonMeshVertex
 10
-0.494975
 20
0.494975
 30
0.22
 70
    64
  0
VERTEX
  5
908
100
AcDbEntity
  8
0
  6
CONTINUOUS
 62
     7
100
AcDbVertex
100
AcDbPolygonMeshVertex
 10
-0.7
 20
0.0
 30
0.22
 70
    64
  0
VERTEX
  5
909
100
AcDbEntity
  8
0
  6
CONTINUOUS
 62
     7
100
AcDbVertex
100
AcDbPolygonMeshVertex
 10
-0.494975
 20
-0.494975
 30
0.22
 70
    64
  0
VERTEX
  5
90A
100
AcDbEntity
  8
0
  6
CONTINUOUS
 62
     7
100
AcDbVertex
100
AcDbPolygonMeshVertex
 10
0.0
 20
-0.7
 30
0.22
 70
    64
  0
VERTEX
  5
90B
100
AcDbEntity
  8
0
  6
CONTINUOUS
 62
     7
100
AcDbVertex
100
AcDbPolygonMeshVertex
 10
0.494975
 20
-0.494975
 30
0.22
 70
    64
  0
SEQEND
  5
90C
100
AcDbEntity
  8
0
  6
CONTINUOUS
 62
     7
  0
POLYLINE
  5
90D
100
AcDbEntity
  8
0
  6
CONTINUOUS
 62
     7
100
AcDbPolygonMesh
 66
     1
 10
0.0
 20
0.0
 30
0.0
 70
    48
 71
     2
 72
     8
  0
VERTEX
  5
90E
100
AcDbEntity
  8
0
  6
CONTINUOUS
 62
     7
100
AcDbVertex
100
AcDbPolygonMeshVertex
 10
0.7
 20
0.0
 30
0.22
 70
    64
  0
VERTEX
  5
90F
100
AcDbEntity
  8
0
  6
CONTINUOUS
 62
     7
100
AcDbVertex
100
AcDbPolygonMeshVertex
 10
0.494975
 20
0.494975
 30
0.22
 70
    64
  0
VERTEX
  5
910
100
AcDbEntity
  8
0
  6
CONTINUOUS
 62
     7
100
AcDbVertex
100
AcDbPolygonMeshVertex
 10
0.0
 20
0.7
 30
0.22
 70
    64
  0
VERTEX
  5
911
100
AcDbEntity
  8
0
  6
CONTINUOUS
 62
     7
100
AcDbVertex
100
AcDbPolygonMeshVertex
 10
-0.494975
 20
0.494975
 30
0.22
 70
    64
  0
VERTEX
  5
912
100
AcDbEntity
  8
0
  6
CONTINUOUS
 62
     7
100
AcDbVertex
100
AcDbPolygonMeshVertex
 10
-0.7
 20
0.0
 30
0.22
 70
    64
  0
VERTEX
  5
913
100
AcDbEntity
  8
0
  6
CONTINUOUS
 62
     7
100
AcDbVertex
100
AcDbPolygonMeshVertex
 10
-0.494975
 20
-0.494975
 30
0.22
 70
    64
  0
VERTEX
  5
914
100
AcDbEntity
  8
0
  6
CONTINUOUS
 62
     7
100
AcDbVertex
100
AcDbPolygonMeshVertex
 10
0.0
 20
-0.7
 30
0.22
 70
    64
  0
VERTEX
  5
915
100
AcDbEntity
  8
0
  6
CONTINUOUS
 62
     7
100
AcDbVertex
100
AcDbPolygonMeshVertex
 10
0.494975
 20
-0.494975
 30
0.22
 70
    64
  0
VERTEX
  5
916
100
AcDbEntity
  8
0
  6
CONTINUOUS
 62
     7
100
AcDbVertex
100
AcDbPolygonMeshVertex
 10
0.7
 20
0.0
 30
0.44
 70
    64
  0
VERTEX
  5
917
100
AcDbEntity
  8
0
  6
CONTINUOUS
 62
     7
100
AcDbVertex
100
AcDbPolygonMeshVertex
 10
0.494975
 20
0.494975
 30
0.44
 70
    64
  0
VERTEX
  5
918
100
AcDbEntity
  8
0
  6
CONTINUOUS
 62
     7
100
AcDbVertex
100
AcDbPolygonMeshVertex
 10
0.0
 20
0.7
 30
0.44
 70
    64
  0
VERTEX
  5
919
100
AcDbEntity
  8
0
  6
CONTINUOUS
 62
     7
100
AcDbVertex
100
AcDbPolygonMeshVertex
 10
-0.494975
 20
0.494975
 30
0.44
 70
    64
  0
VERTEX
  5
91A
100
AcDbEntity
  8
0
  6
CONTINUOUS
 62
     7
100
AcDbVertex
100
AcDbPolygonMeshVertex
 10
-0.7
 20
0.0
 30
0.44
 70
    64
  0
VERTEX
  5
91B
100
AcDbEntity
  8
0
  6
CONTINUOUS
 62
     7
100
AcDbVertex
100
AcDbPolygonMeshVertex
 10
-0.494975
 20
-0.494975
 30
0.44
 70
    64
  0
VERTEX
  5
91C
100
AcDbEntity
  8
0
  6
CONTINUOUS
 62
     7
100
AcDbVertex
100
AcDbPolygonMeshVertex
 10
0.0
 20
-0.7
 30
0.44
 70
    64
  0
VERTEX
  5
91D
100
AcDbEntity
  8
0
  6
CONTINUOUS
 62
     7
100
AcDbVertex
100
AcDbPolygonMeshVertex
 10
0.494975
 20
-0.494975
 30
0.44
 70
    64
  0
SEQEND
  5
91E
100
AcDbEntity
  8
0
  6
CONTINUOUS
 62
     7
  0
POLYLINE
  5
91F
100
AcDbEntity
  8
0
  6
CONTINUOUS
 62
     7
100
AcDbPolygonMesh
 66
     1
 10
0.0
 20
0.0
 30
0.0
 70
    48
 71
     2
 72
     8
  0
VERTEX
  5
920
100
AcDbEntity
  8
0
  6
CONTINUOUS
 62
     7
100
AcDbVertex
100
AcDbPolygonMeshVertex
 10
0.7
 20
0.0
 30
0.44
 70
    64
  0
VERTEX
  5
921
100
AcDbEntity
  8
0
  6
CONTINUOUS
 62
     7
100
AcDbVertex
100
AcDbPolygonMeshVertex
 10
0.494975
 20
0.494975
 30
0.44
 70
    64
  0
VERTEX
  5
922
100
AcDbEntity
  8
0
  6
CONTINUOUS
 62
     7
100
AcDbVertex
100
AcDbPolygonMeshVertex
 10
0.0
 20
0.7
 30
0.44
 70
    64
  0
VERTEX
  5
923
100
AcDbEntity
  8
0
  6
CONTINUOUS
 62
     7
100
AcDbVertex
100
AcDbPolygonMeshVertex
 10
-0.494975
 20
0.494975
 30
0.44
 70
    64
  0
VERTEX
  5
924
100
AcDbEntity
  8
0
  6
CONTINUOUS
 62
     7
100
AcDbVertex
100
AcDbPolygonMeshVertex
 10
-0.7
 20
0.0
 30
0.44
 70
    64
  0
VERTEX
  5
925
100
AcDbEntity
  8
0
  6
CONTINUOUS
 62
     7
100
AcDbVertex
100
AcDbPolygonMeshVertex
 10
-0.494975
 20
-0.494975
 30
0.44
 70
    64
  0
VERTEX
  5
926
100
AcDbEntity
  8
0
  6
CONTINUOUS
 62
     7
100
AcDbVertex
100
AcDbPolygonMeshVertex
 10
0.0
 20
-0.7
 30
0.44
 70
    64
  0
VERTEX
  5
927
100
AcDbEntity
  8
0
  6
CONTINUOUS
 62
     7
100
AcDbVertex
100
AcDbPolygonMeshVertex
 10
0.494975
 20
-0.494975
 30
0.44
 70
    64
  0
VERTEX
  5
928
100
AcDbEntity
  8
0
  6
CONTINUOUS
 62
     7
100
AcDbVertex
100
AcDbPolygonMeshVertex
 10
0.5
 20
0.0
 30
1.0
 70
    64
  0
VERTEX
  5
929
100
AcDbEntity
  8
0
  6
CONTINUOUS
 62
     7
100
AcDbVertex
100
AcDbPolygonMeshVertex
 10
0.353553
 20
0.353553
 30
1.0
 70
    64
  0
VERTEX
  5
92A
100
AcDbEntity
  8
0
  6
CONTINUOUS
 62
     7
100
AcDbVertex
100
AcDbPolygonMeshVertex
 10
0.0
 20
0.5
 30
1.0
 70
    64
  0
VERTEX
  5
92B
100
AcDbEntity
  8
0
  6
CONTINUOUS
 62
     7
100
AcDbVertex
100
AcDbPolygonMeshVertex
 10
-0.353553
 20
0.353553
 30
1.0
 70
    64
  0
VERTEX
  5
92C
100
AcDbEntity
  8
0
  6
CONTINUOUS
 62
     7
100
AcDbVertex
100
AcDbPolygonMeshVertex
 10
-0.5
 20
0.0
 30
1.0
 70
    64
  0
VERTEX
  5
92D
100
AcDbEntity
  8
0
  6
CONTINUOUS
 62
     7
100
AcDbVertex
100
AcDbPolygonMeshVertex
 10
-0.353553
 20
-0.353553
 30
1.0
 70
    64
  0
VERTEX
  5
92E
100
AcDbEntity
  8
0
  6
CONTINUOUS
 62
     7
100
AcDbVertex
100
AcDbPolygonMeshVertex
 10
0.0
 20
-0.5
 30
1.0
 70
    64
  0
VERTEX
  5
92F
100
AcDbEntity
  8
0
  6
CONTINUOUS
 62
     7
100
AcDbVertex
100
AcDbPolygonMeshVertex
 10
0.353553
 20
-0.353553
 30
1.0
 70
    64
  0
SEQEND
  5
930
100
AcDbEntity
  8
0
  6
CONTINUOUS
 62
     7
  0
LINE
  5
931
100
AcDbEntity
  8
0
  6
CONTINUOUS
 62
     7
100
AcDbLine
 10
0.518451
 20
0.0
 30
0.974266
 11
0.645223
 21
-0.221703
 31
0.611796
210
0.9439341089019071
220
0.0
230
0.3301339092725288
  0
CIRCLE
  5
932
100
AcDbEntity
  8
0
  6
CONTINUOUS
 62
     7
100
AcDbCircle
 10
0.0
 20
0.492485
 30
0.811022
 40
0.256
210
0.9439341089019071
220
0.0
230
0.3301339092725288
  0
LINE
  5
933
100
AcDbEntity
  8
0
  6
CONTINUOUS
 62
     7
100
AcDbLine
 10
0.518451
 20
0.0
 30
0.974266
 11
0.645223
 21
0.221703
 31
0.611796
210
0.9439341089019071
220
0.0
230
0.3301339092725288
  0
LINE
  5
934
100
AcDbEntity
  8
0
  6
CONTINUOUS
 62
     7
100
AcDbLine
 10
0.645223
 20
-0.221703
 30
0.611796
 11
0.645223
 21
0.221703
 31
0.611796
210
0.9439341089019071
220
0.0
230
0.3301339092725288
  0
CIRCLE
  5
935
100
AcDbEntity
  8
0
  6
CONTINUOUS
100
AcDbCircle
 10
0.0
 20
0.0
 30
1.0
 40
0.5
  0
CIRCLE
  5
936
100
AcDbEntity
  8
0
  6
CONTINUOUS
100
AcDbCircle
 10
0.0
 20
0.0
 30
0.0
 40
0.5
  0
LINE
  5
937
100
AcDbEntity
  8
0
  6
CONTINUOUS
100
AcDbLine
 10
0.0
 20
0.5
 30
0.0
 11
0.0
 21
0.7
 31
0.22
  0
LINE
  5
938
100
AcDbEntity
  8
0
  6
CONTINUOUS
100
AcDbLine
 10
0.0
 20
0.7
 30
0.22
 11
0.0
 21
0.7
 31
0.44
  0
LINE
  5
939
100
AcDbEntity
  8
0
  6
CONTINUOUS
100
AcDbLine
 10
0.0
 20
0.7
 30
0.44
 11
0.0
 21
0.5
 31
1.0
  0
LINE
  5
93A
100
AcDbEntity
  8
0
  6
CONTINUOUS
100
AcDbLine
 10
-0.7
 20
0.0
 30
0.44
 11
-0.5
 21
0.0
 31
1.0
  0
LINE
  5
93B
100
AcDbEntity
  8
0
  6
CONTINUOUS
100
AcDbLine
 10
-0.5
 20
0.0
 30
0.0
 11
-0.7
 21
0.0
 31
0.22
  0
LINE
  5
93C
100
AcDbEntity
  8
0
  6
CONTINUOUS
100
AcDbLine
 10
-0.7
 20
0.0
 30
0.22
 11
-0.7
 21
0.0
 31
0.44
  0
LINE
  5
93D
100
AcDbEntity
  8
0
  6
CONTINUOUS
100
AcDbLine
 10
0.7
 20
0.0
 30
0.44
 11
0.5
 21
0.0
 31
1.0
  0
LINE
  5
93E
100
AcDbEntity
  8
0
  6
CONTINUOUS
100
AcDbLine
 10
0.5
 20
0.0
 30
0.0
 11
0.7
 21
0.0
 31
0.22
  0
LINE
  5
93F
100
AcDbEntity
  8
0
  6
CONTINUOUS
100
AcDbLine
 10
0.7
 20
0.0
 30
0.22
 11
0.7
 21
0.0
 31
0.44
  0
LINE
  5
940
100
AcDbEntity
  8
0
  6
CONTINUOUS
100
AcDbLine
 10
0.0
 20
-0.7
 30
0.44
 11
0.0
 21
-0.5
 31
1.0
  0
LINE
  5
941
100
AcDbEntity
  8
0
  6
CONTINUOUS
100
AcDbLine
 10
0.0
 20
-0.5
 30
0.0
 11
0.0
 21
-0.7
 31
0.22
  0
LINE
  5
942
100
AcDbEntity
  8
0
  6
CONTINUOUS
100
AcDbLine
 10
0.0
 20
-0.7
 30
0.22
 11
0.0
 21
-0.7
 31
0.44
  0
CIRCLE
  5
943
100
AcDbEntity
  8
0
  6
CONTINUOUS
100
AcDbCircle
 10
0.0
 20
0.0
 30
0.44
 40
0.7
  0
CIRCLE
  5
944
100
AcDbEntity
  8
0
  6
CONTINUOUS
100
AcDbCircle
 10
0.0
 20
0.0
 30
0.22
 40
0.7
  0
LINE
  5
945
100
AcDbEntity
  8
0
  6
CONTINUOUS
 62
     7
100
AcDbLine
 10
-0.518451
 20
0.0
 30
0.974266
 11
-0.645223
 21
0.221703
 31
0.611796
210
-0.9439341089019071
220
0.0
230
0.3301339092725288
  0
LINE
  5
946
100
AcDbEntity
  8
0
  6
CONTINUOUS
 62
     7
100
AcDbLine
 10
-0.645223
 20
-0.221703
 30
0.611796
 11
-0.645223
 21
0.221703
 31
0.611796
210
-0.9439341089019071
220
0.0
230
0.3301339092725288
  0
LINE
  5
947
100
AcDbEntity
  8
0
  6
CONTINUOUS
 62
     7
100
AcDbLine
 10
-0.518451
 20
0.0
 30
0.974266
 11
-0.645223
 21
-0.221703
 31
0.611796
210
-0.9439341089019071
220
0.0
230
0.3301339092725288
  0
CIRCLE
  5
948
100
AcDbEntity
  8
0
  6
CONTINUOUS
 62
     7
100
AcDbCircle
 10
0.0
 20
0.492485
 30
0.811022
 40
0.256
210
-0.9439341089019071
220
0.0
230
0.3301339092725288
  0
LINE
  5
949
100
AcDbEntity
  8
0
  6
CONTINUOUS
 62
     7
100
AcDbLine
 10
0.0
 20
0.518451
 30
0.974266
 11
-0.221703
 21
0.645223
 31
0.611796
210
0.0
220
0.9439341089019071
230
0.3301339092725288
  0
CIRCLE
  5
94A
100
AcDbEntity
  8
0
  6
CONTINUOUS
 62
     7
100
AcDbCircle
 10
0.0
 20
0.492485
 30
0.811022
 40
0.256
210
0.0
220
0.9439341089019071
230
0.3301339092725288
  0
LINE
  5
94B
100
AcDbEntity
  8
0
  6
CONTINUOUS
 62
     7
100
AcDbLine
 10
0.221703
 20
0.645223
 30
0.611796
 11
-0.221703
 21
0.645223
 31
0.611796
210
0.0
220
0.9439341089019071
230
0.3301339092725288
  0
LINE
  5
94C
100
AcDbEntity
  8
0
  6
CONTINUOUS
 62
     7
100
AcDbLine
 10
0.0
 20
0.518451
 30
0.974266
 11
0.221703
 21
0.645223
 31
0.611796
210
0.0
220
0.9439341089019071
230
0.3301339092725288
  0
LINE
  5
94D
100
AcDbEntity
  8
0
  6
CONTINUOUS
 62
     7
100
AcDbLine
 10
0.221703
 20
-0.645223
 30
0.611796
 11
-0.221703
 21
-0.645223
 31
0.611796
210
0.0
220
-0.9439341089019071
230
0.3301339092725288
  0
LINE
  5
94E
100
AcDbEntity
  8
0
  6
CONTINUOUS
 62
     7
100
AcDbLine
 10
0.0
 20
-0.518451
 30
0.974266
 11
0.221703
 21
-0.645223
 31
0.611796
210
0.0
220
-0.9439341089019071
230
0.3301339092725288
  0
CIRCLE
  5
94F
100
AcDbEntity
  8
0
  6
CONTINUOUS
 62
     7
100
AcDbCircle
 10
0.0
 20
0.492485
 30
0.811022
 40
0.256
210
0.0
220
-0.9439341089019071
230
0.3301339092725288
  0
LINE
  5
950
100
AcDbEntity
  8
0
  6
CONTINUOUS
 62
     7
100
AcDbLine
 10
0.0
 20
-0.518451
 30
0.974266
 11
-0.221703
 21
-0.645223
 31
0.611796
210
0.0
220
-0.9439341089019071
230
0.3301339092725288
  0
ENDBLK
  5
952
100
AcDbEntity
  8
0
 62
     2
100
AcDbBlockEnd
  0
BLOCK
  5
959
100
AcDbEntity
  8
0
100
AcDbBlockBegin
  2
ELE123V103_2
 70
     2
 10
0.0
 20
0.0
 30
0.0
  3
ELE123V103_2
  1

  0
INSERT
  5
95A
100
AcDbEntity
  8
VZ1
  6
CONTINUOUS
 62
     2
100
AcDbBlockReference
  2
VE011
 10
0.0
 20
0.0
 30
0.0
 41
355.0
 42
355.0
 43
176.0
  0
ATTDEF
  5
95B
100
AcDbEntity
  8
VZ1
  6
CONTINUOUS
 62
     2
100
AcDbText
 10
0.0
 20
0.0
 30
0.0
 40
1.0
  1
3383
 41
0.8
  7
ROMANS
100
AcDbAttributeDefinition
  3

  2
VETA
 70
     1
  0
ATTDEF
  5
95C
100
AcDbEntity
  8
VZ1
  6
CONTINUOUS
 62
     2
100
AcDbText
 10
0.0
 20
0.0
 30
0.0
 40
1.0
  1

 41
0.8
  7
ROMANS
100
AcDbAttributeDefinition
  3

  2
POS
 70
     1
  0
ATTDEF
  5
95D
100
AcDbEntity
  8
VZ1
  6
CONTINUOUS
 62
     2
100
AcDbText
 10
0.0
 20
0.0
 30
0.0
 40
1.0
  1
TCFB/4-355 H
 41
0.8
  7
ROMANS
100
AcDbAttributeDefinition
  3

  2
NAZEV
 70
     1
  0
ATTDEF
  5
95E
100
AcDbEntity
  8
VZ1
  6
CONTINUOUS
 62
     2
100
AcDbText
 10
0.0
 20
0.0
 30
0.0
 40
1.0
  1

 41
0.8
  7
ROMANS
100
AcDbAttributeDefinition
  3

  2
TYP
 70
     1
  0
ENDBLK
  5
95F
100
AcDbEntity
  8
0
100
AcDbBlockEnd
  0
BLOCK
  5
983
100
AcDbEntity
  8
0
100
AcDbBlockBegin
  2
ELE123V103_3
 70
     2
 10
0.0
 20
0.0
 30
0.0
  3
ELE123V103_3
  1

  0
CIRCLE
  5
984
100
AcDbEntity
  8
VZ1
  6
CONTINUOUS
 62
     2
100
AcDbCircle
 39
150.0
 10
0.0
 20
0.0
 30
0.0
 40
177.5
  0
ATTDEF
  5
985
100
AcDbEntity
  8
VZ1
  6
CONTINUOUS
 62
     2
100
AcDbText
 10
0.0
 20
0.0
 30
0.0
 40
1.0
  1
3383
 41
0.8
  7
ROMANS
100
AcDbAttributeDefinition
  3

  2
VETA
 70
     1
  0
ATTDEF
  5
986
100
AcDbEntity
  8
VZ1
  6
CONTINUOUS
 62
     2
100
AcDbText
 10
0.0
 20
0.0
 30
0.0
 40
1.0
  1

 41
0.8
  7
ROMANS
100
AcDbAttributeDefinition
  3

  2
POS
 70
     1
  0
ATTDEF
  5
987
100
AcDbEntity
  8
VZ1
  6
CONTINUOUS
 62
     2
100
AcDbText
 10
0.0
 20
0.0
 30
0.0
 40
1.0
  1
TCFB/4-355 H
 41
0.8
  7
ROMANS
100
AcDbAttributeDefinition
  3

  2
NAZEV
 70
     1
  0
ATTDEF
  5
988
100
AcDbEntity
  8
VZ1
  6
CONTINUOUS
 62
     2
100
AcDbText
 10
0.0
 20
0.0
 30
0.0
 40
1.0
  1

 41
0.8
  7
ROMANS
100
AcDbAttributeDefinition
  3

  2
TYP
 70
     1
  0
ENDBLK
  5
989
100
AcDbEntity
  8
0
100
AcDbBlockEnd
  0
BLOCK
  5
998
100
AcDbEntity
  8
0
100
AcDbBlockBegin
  2
ELE123V103_4
 70
     2
 10
0.0
 20
0.0
 30
0.0
  3
ELE123V103_4
  1

  0
CIRCLE
  5
999
100
AcDbEntity
  8
VZ1
  6
CONTINUOUS
 62
     2
100
AcDbCircle
 39
150.0
 10
0.0
 20
0.0
 30
0.0
 40
177.5
  0
ATTDEF
  5
99A
100
AcDbEntity
  8
VZ1
  6
CONTINUOUS
 62
     2
100
AcDbText
 10
0.0
 20
0.0
 30
0.0
 40
1.0
  1
3383
 41
0.8
  7
ROMANS
100
AcDbAttributeDefinition
  3

  2
VETA
 70
     1
  0
ATTDEF
  5
99B
100
AcDbEntity
  8
VZ1
  6
CONTINUOUS
 62
     2
100
AcDbText
 10
0.0
 20
0.0
 30
0.0
 40
1.0
  1

 41
0.8
  7
ROMANS
100
AcDbAttributeDefinition
  3

  2
POS
 70
     1
  0
ATTDEF
  5
99C
100
AcDbEntity
  8
VZ1
  6
CONTINUOUS
 62
     2
100
AcDbText
 10
0.0
 20
0.0
 30
0.0
 40
1.0
  1
TCFB/4-355 H
 41
0.8
  7
ROMANS
100
AcDbAttributeDefinition
  3

  2
NAZEV
 70
     1
  0
ATTDEF
  5
99D
100
AcDbEntity
  8
VZ1
  6
CONTINUOUS
 62
     2
100
AcDbText
 10
0.0
 20
0.0
 30
0.0
 40
1.0
  1

 41
0.8
  7
ROMANS
100
AcDbAttributeDefinition
  3

  2
TYP
 70
     1
  0
ENDBLK
  5
99E
100
AcDbEntity
  8
0
100
AcDbBlockEnd
  0
BLOCK
  5
B99
100
AcDbEntity
  8
0
100
AcDbBlockBegin
  2
VOMRIZ-APL
 70
     0
 10
0.0
 20
0.0
 30
0.0
  3
VOMRIZ-APL
  1

  0
LINE
  5
B14
100
AcDbEntity
  8
0
  6
CONTINUOUS
100
AcDbLine
 10
-0.5
 20
-0.5
 30
0.0
 11
-0.5
 21
0.5
 31
0.0
  0
LINE
  5
B15
100
AcDbEntity
  8
0
  6
CONTINUOUS
100
AcDbLine
 10
0.5
 20
-0.5
 30
0.0
 11
0.5
 21
0.5
 31
0.0
  0
LINE
  5
B16
100
AcDbEntity
  8
0
  6
CONTINUOUS
100
AcDbLine
 10
-0.5
 20
-0.5
 30
0.0
 11
0.5
 21
-0.5
 31
0.0
  0
LINE
  5
B17
100
AcDbEntity
  8
0
  6
CONTINUOUS
100
AcDbLine
 10
-0.5
 20
0.5
 30
0.0
 11
0.5
 21
0.5
 31
0.0
  0
CIRCLE
  5
B18
100
AcDbEntity
  8
0
  6
CONTINUOUS
100
AcDbCircle
 10
0.0
 20
0.0
 30
0.0
 40
0.041928
  0
ARC
  5
B19
100
AcDbEntity
  8
0
100
AcDbCircle
 10
0.32
 20
0.36
 30
0.0
 40
0.013
100
AcDbArc
 50
315.0
 51
135.0
  0
ARC
  5
B1A
100
AcDbEntity
  8
0
100
AcDbCircle
 10
0.24
 20
0.36
 30
0.0
 40
0.013
100
AcDbArc
 50
315.0
 51
135.0
  0
ARC
  5
B1B
100
AcDbEntity
  8
0
100
AcDbCircle
 10
0.16
 20
0.36
 30
0.0
 40
0.013
100
AcDbArc
 50
315.0
 51
135.0
  0
ARC
  5
B1C
100
AcDbEntity
  8
0
100
AcDbCircle
 10
0.08
 20
0.36
 30
0.0
 40
0.013
100
AcDbArc
 50
315.0
 51
135.0
  0
LINE
  5
B1D
100
AcDbEntity
  8
0
100
AcDbLine
 10
0.089192
 20
0.350808
 30
0.0
 11
0.056692
 21
0.318307
 31
0.0
  0
LINE
  5
B1E
100
AcDbEntity
  8
0
100
AcDbLine
 10
0.070808
 20
0.369192
 30
0.0
 11
0.038307
 21
0.336692
 31
0.0
  0
ARC
  5
B1F
100
AcDbEntity
  8
0
100
AcDbCircle
 10
0.0475
 20
0.3275
 30
0.0
 40
0.013
100
AcDbArc
 50
135.0
 51
315.0
  0
LINE
  5
B20
100
AcDbEntity
  8
0
100
AcDbLine
 10
0.150808
 20
0.369192
 30
0.0
 11
0.037011
 21
0.255395
 31
0.0
  0
LINE
  5
B21
100
AcDbEntity
  8
0
100
AcDbLine
 10
0.169192
 20
0.350808
 30
0.0
 11
0.055395
 21
0.237011
 31
0.0
  0
ARC
  5
B22
100
AcDbEntity
  8
0
100
AcDbCircle
 10
0.046203
 20
0.246203
 30
0.0
 40
0.013
100
AcDbArc
 50
135.0
 51
315.0
  0
LINE
  5
B23
100
AcDbEntity
  8
0
100
AcDbLine
 10
0.249192
 20
0.350808
 30
0.0
 11
0.054099
 21
0.155714
 31
0.0
  0
LINE
  5
B24
100
AcDbEntity
  8
0
100
AcDbLine
 10
0.230808
 20
0.369192
 30
0.0
 11
0.035714
 21
0.174099
 31
0.0
  0
ARC
  5
B25
100
AcDbEntity
  8
0
100
AcDbCircle
 10
0.044906
 20
0.164906
 30
0.0
 40
0.013
100
AcDbArc
 50
135.0
 51
315.0
  0
LINE
  5
B26
100
AcDbEntity
  8
0
100
AcDbLine
 10
0.310808
 20
0.369192
 30
0.0
 11
0.032244
 21
0.090629
 31
0.0
  0
LINE
  5
B27
100
AcDbEntity
  8
0
100
AcDbLine
 10
0.329192
 20
0.350808
 30
0.0
 11
0.050629
 21
0.072244
 31
0.0
  0
ARC
  5
B28
100
AcDbEntity
  8
0
100
AcDbCircle
 10
0.041436
 20
0.081436
 30
0.0
 40
0.013
100
AcDbArc
 50
135.0
 51
315.0
  0
ARC
  5
B29
100
AcDbEntity
  8
0
100
AcDbCircle
 10
0.081436
 20
0.041436
 30
0.0
 40
0.013
100
AcDbArc
 50
135.0
 51
315.0
  0
LINE
  5
B2A
100
AcDbEntity
  8
0
100
AcDbLine
 10
0.350808
 20
0.329192
 30
0.0
 11
0.072244
 21
0.050629
 31
0.0
  0
LINE
  5
B2B
100
AcDbEntity
  8
0
100
AcDbLine
 10
0.369192
 20
0.310808
 30
0.0
 11
0.090629
 21
0.032244
 31
0.0
  0
ARC
  5
B2C
100
AcDbEntity
  8
0
100
AcDbCircle
 10
0.164906
 20
0.044906
 30
0.0
 40
0.013
100
AcDbArc
 50
135.0
 51
315.0
  0
LINE
  5
B2D
100
AcDbEntity
  8
0
100
AcDbLine
 10
0.369192
 20
0.230808
 30
0.0
 11
0.174099
 21
0.035714
 31
0.0
  0
LINE
  5
B2E
100
AcDbEntity
  8
0
100
AcDbLine
 10
0.350808
 20
0.249192
 30
0.0
 11
0.155714
 21
0.054099
 31
0.0
  0
ARC
  5
B2F
100
AcDbEntity
  8
0
100
AcDbCircle
 10
0.246203
 20
0.046203
 30
0.0
 40
0.013
100
AcDbArc
 50
135.0
 51
315.0
  0
LINE
  5
B30
100
AcDbEntity
  8
0
100
AcDbLine
 10
0.350808
 20
0.169192
 30
0.0
 11
0.237011
 21
0.055395
 31
0.0
  0
LINE
  5
B31
100
AcDbEntity
  8
0
100
AcDbLine
 10
0.369192
 20
0.150808
 30
0.0
 11
0.255395
 21
0.037011
 31
0.0
  0
ARC
  5
B32
100
AcDbEntity
  8
0
100
AcDbCircle
 10
0.3275
 20
0.0475
 30
0.0
 40
0.013
100
AcDbArc
 50
135.0
 51
315.0
  0
LINE
  5
B33
100
AcDbEntity
  8
0
100
AcDbLine
 10
0.369192
 20
0.070808
 30
0.0
 11
0.336692
 21
0.038307
 31
0.0
  0
LINE
  5
B34
100
AcDbEntity
  8
0
100
AcDbLine
 10
0.350808
 20
0.089192
 30
0.0
 11
0.318307
 21
0.056692
 31
0.0
  0
ARC
  5
B35
100
AcDbEntity
  8
0
100
AcDbCircle
 10
0.36
 20
0.08
 30
0.0
 40
0.013
100
AcDbArc
 50
315.0
 51
135.0
  0
ARC
  5
B36
100
AcDbEntity
  8
0
100
AcDbCircle
 10
0.36
 20
0.16
 30
0.0
 40
0.013
100
AcDbArc
 50
315.0
 51
135.0
  0
ARC
  5
B37
100
AcDbEntity
  8
0
100
AcDbCircle
 10
0.36
 20
0.24
 30
0.0
 40
0.013
100
AcDbArc
 50
315.0
 51
135.0
  0
ARC
  5
B38
100
AcDbEntity
  8
0
100
AcDbCircle
 10
0.36
 20
0.32
 30
0.0
 40
0.013
100
AcDbArc
 50
315.0
 51
135.0
  0
ARC
  5
B39
100
AcDbEntity
  8
0
100
AcDbCircle
 10
0.36
 20
-0.32
 30
0.0
 40
0.013
100
AcDbArc
 50
225.0
 51
45.0
  0
ARC
  5
B3A
100
AcDbEntity
  8
0
100
AcDbCircle
 10
0.36
 20
-0.24
 30
0.0
 40
0.013
100
AcDbArc
 50
225.0
 51
45.0
  0
ARC
  5
B3B
100
AcDbEntity
  8
0
100
AcDbCircle
 10
0.36
 20
-0.16
 30
0.0
 40
0.013
100
AcDbArc
 50
225.0
 51
45.0
  0
ARC
  5
B3C
100
AcDbEntity
  8
0
100
AcDbCircle
 10
0.36
 20
-0.08
 30
0.0
 40
0.013
100
AcDbArc
 50
225.0
 51
45.0
  0
LINE
  5
B3D
100
AcDbEntity
  8
0
100
AcDbLine
 10
0.350808
 20
-0.089192
 30
0.0
 11
0.318307
 21
-0.056692
 31
0.0
  0
LINE
  5
B3E
100
AcDbEntity
  8
0
100
AcDbLine
 10
0.369192
 20
-0.070808
 30
0.0
 11
0.336692
 21
-0.038307
 31
0.0
  0
ARC
  5
B3F
100
AcDbEntity
  8
0
100
AcDbCircle
 10
0.3275
 20
-0.0475
 30
0.0
 40
0.013
100
AcDbArc
 50
45.0
 51
225.0
  0
LINE
  5
B40
100
AcDbEntity
  8
0
100
AcDbLine
 10
0.369192
 20
-0.150808
 30
0.0
 11
0.255395
 21
-0.037011
 31
0.0
  0
LINE
  5
B41
100
AcDbEntity
  8
0
100
AcDbLine
 10
0.350808
 20
-0.169192
 30
0.0
 11
0.237011
 21
-0.055395
 31
0.0
  0
ARC
  5
B42
100
AcDbEntity
  8
0
100
AcDbCircle
 10
0.246203
 20
-0.046203
 30
0.0
 40
0.013
100
AcDbArc
 50
45.0
 51
225.0
  0
LINE
  5
B43
100
AcDbEntity
  8
0
100
AcDbLine
 10
0.350808
 20
-0.249192
 30
0.0
 11
0.155714
 21
-0.054099
 31
0.0
  0
LINE
  5
B44
100
AcDbEntity
  8
0
100
AcDbLine
 10
0.369192
 20
-0.230808
 30
0.0
 11
0.174099
 21
-0.035714
 31
0.0
  0
ARC
  5
B45
100
AcDbEntity
  8
0
100
AcDbCircle
 10
0.164906
 20
-0.044906
 30
0.0
 40
0.013
100
AcDbArc
 50
45.0
 51
225.0
  0
LINE
  5
B46
100
AcDbEntity
  8
0
100
AcDbLine
 10
0.369192
 20
-0.310808
 30
0.0
 11
0.090629
 21
-0.032244
 31
0.0
  0
LINE
  5
B47
100
AcDbEntity
  8
0
100
AcDbLine
 10
0.350808
 20
-0.329192
 30
0.0
 11
0.072244
 21
-0.050629
 31
0.0
  0
ARC
  5
B48
100
AcDbEntity
  8
0
100
AcDbCircle
 10
0.081436
 20
-0.041436
 30
0.0
 40
0.013
100
AcDbArc
 50
45.0
 51
225.0
  0
ARC
  5
B49
100
AcDbEntity
  8
0
100
AcDbCircle
 10
0.041436
 20
-0.081436
 30
0.0
 40
0.013
100
AcDbArc
 50
45.0
 51
225.0
  0
LINE
  5
B4A
100
AcDbEntity
  8
0
100
AcDbLine
 10
0.329192
 20
-0.350808
 30
0.0
 11
0.050629
 21
-0.072244
 31
0.0
  0
LINE
  5
B4B
100
AcDbEntity
  8
0
100
AcDbLine
 10
0.310808
 20
-0.369192
 30
0.0
 11
0.032244
 21
-0.090629
 31
0.0
  0
ARC
  5
B4C
100
AcDbEntity
  8
0
100
AcDbCircle
 10
0.044906
 20
-0.164906
 30
0.0
 40
0.013
100
AcDbArc
 50
45.0
 51
225.0
  0
LINE
  5
B4D
100
AcDbEntity
  8
0
100
AcDbLine
 10
0.230808
 20
-0.369192
 30
0.0
 11
0.035714
 21
-0.174099
 31
0.0
  0
LINE
  5
B4E
100
AcDbEntity
  8
0
100
AcDbLine
 10
0.249192
 20
-0.350808
 30
0.0
 11
0.054099
 21
-0.155714
 31
0.0
  0
ARC
  5
B4F
100
AcDbEntity
  8
0
100
AcDbCircle
 10
0.046203
 20
-0.246203
 30
0.0
 40
0.013
100
AcDbArc
 50
45.0
 51
225.0
  0
LINE
  5
B50
100
AcDbEntity
  8
0
100
AcDbLine
 10
0.169192
 20
-0.350808
 30
0.0
 11
0.055395
 21
-0.237011
 31
0.0
  0
LINE
  5
B51
100
AcDbEntity
  8
0
100
AcDbLine
 10
0.150808
 20
-0.369192
 30
0.0
 11
0.037011
 21
-0.255395
 31
0.0
  0
ARC
  5
B52
100
AcDbEntity
  8
0
100
AcDbCircle
 10
0.0475
 20
-0.3275
 30
0.0
 40
0.013
100
AcDbArc
 50
45.0
 51
225.0
  0
LINE
  5
B53
100
AcDbEntity
  8
0
100
AcDbLine
 10
0.070808
 20
-0.369192
 30
0.0
 11
0.038307
 21
-0.336692
 31
0.0
  0
LINE
  5
B54
100
AcDbEntity
  8
0
100
AcDbLine
 10
0.089192
 20
-0.350808
 30
0.0
 11
0.056692
 21
-0.318307
 31
0.0
  0
ARC
  5
B55
100
AcDbEntity
  8
0
100
AcDbCircle
 10
0.08
 20
-0.36
 30
0.0
 40
0.013
100
AcDbArc
 50
225.0
 51
45.0
  0
ARC
  5
B56
100
AcDbEntity
  8
0
100
AcDbCircle
 10
0.16
 20
-0.36
 30
0.0
 40
0.013
100
AcDbArc
 50
225.0
 51
45.0
  0
ARC
  5
B57
100
AcDbEntity
  8
0
100
AcDbCircle
 10
0.24
 20
-0.36
 30
0.0
 40
0.013
100
AcDbArc
 50
225.0
 51
45.0
  0
ARC
  5
B58
100
AcDbEntity
  8
0
100
AcDbCircle
 10
0.32
 20
-0.36
 30
0.0
 40
0.013
100
AcDbArc
 50
225.0
 51
45.0
  0
ARC
  5
B59
100
AcDbEntity
  8
0
100
AcDbCircle
 10
-0.32
 20
-0.36
 30
0.0
 40
0.013
100
AcDbArc
 50
135.0
 51
315.0
  0
ARC
  5
B5A
100
AcDbEntity
  8
0
100
AcDbCircle
 10
-0.24
 20
-0.36
 30
0.0
 40
0.013
100
AcDbArc
 50
135.0
 51
315.0
  0
ARC
  5
B5B
100
AcDbEntity
  8
0
100
AcDbCircle
 10
-0.16
 20
-0.36
 30
0.0
 40
0.013
100
AcDbArc
 50
135.0
 51
315.0
  0
ARC
  5
B5C
100
AcDbEntity
  8
0
100
AcDbCircle
 10
-0.08
 20
-0.36
 30
0.0
 40
0.013
100
AcDbArc
 50
135.0
 51
315.0
  0
LINE
  5
B5D
100
AcDbEntity
  8
0
100
AcDbLine
 10
-0.089192
 20
-0.350808
 30
0.0
 11
-0.056692
 21
-0.318307
 31
0.0
  0
LINE
  5
B5E
100
AcDbEntity
  8
0
100
AcDbLine
 10
-0.070808
 20
-0.369192
 30
0.0
 11
-0.038307
 21
-0.336692
 31
0.0
  0
ARC
  5
B5F
100
AcDbEntity
  8
0
100
AcDbCircle
 10
-0.0475
 20
-0.3275
 30
0.0
 40
0.013
100
AcDbArc
 50
315.0
 51
135.0
  0
LINE
  5
B60
100
AcDbEntity
  8
0
100
AcDbLine
 10
-0.150808
 20
-0.369192
 30
0.0
 11
-0.037011
 21
-0.255395
 31
0.0
  0
LINE
  5
B61
100
AcDbEntity
  8
0
100
AcDbLine
 10
-0.169192
 20
-0.350808
 30
0.0
 11
-0.055395
 21
-0.237011
 31
0.0
  0
ARC
  5
B62
100
AcDbEntity
  8
0
100
AcDbCircle
 10
-0.046203
 20
-0.246203
 30
0.0
 40
0.013
100
AcDbArc
 50
315.0
 51
135.0
  0
LINE
  5
B63
100
AcDbEntity
  8
0
100
AcDbLine
 10
-0.249192
 20
-0.350808
 30
0.0
 11
-0.054099
 21
-0.155714
 31
0.0
  0
LINE
  5
B64
100
AcDbEntity
  8
0
100
AcDbLine
 10
-0.230808
 20
-0.369192
 30
0.0
 11
-0.035714
 21
-0.174099
 31
0.0
  0
ARC
  5
B65
100
AcDbEntity
  8
0
100
AcDbCircle
 10
-0.044906
 20
-0.164906
 30
0.0
 40
0.013
100
AcDbArc
 50
315.0
 51
135.0
  0
LINE
  5
B66
100
AcDbEntity
  8
0
100
AcDbLine
 10
-0.310808
 20
-0.369192
 30
0.0
 11
-0.032244
 21
-0.090629
 31
0.0
  0
LINE
  5
B67
100
AcDbEntity
  8
0
100
AcDbLine
 10
-0.329192
 20
-0.350808
 30
0.0
 11
-0.050629
 21
-0.072244
 31
0.0
  0
ARC
  5
B68
100
AcDbEntity
  8
0
100
AcDbCircle
 10
-0.041436
 20
-0.081436
 30
0.0
 40
0.013
100
AcDbArc
 50
315.0
 51
135.0
  0
ARC
  5
B69
100
AcDbEntity
  8
0
100
AcDbCircle
 10
-0.081436
 20
-0.041436
 30
0.0
 40
0.013
100
AcDbArc
 50
315.0
 51
135.0
  0
LINE
  5
B6A
100
AcDbEntity
  8
0
100
AcDbLine
 10
-0.350808
 20
-0.329192
 30
0.0
 11
-0.072244
 21
-0.050629
 31
0.0
  0
LINE
  5
B6B
100
AcDbEntity
  8
0
100
AcDbLine
 10
-0.369192
 20
-0.310808
 30
0.0
 11
-0.090629
 21
-0.032244
 31
0.0
  0
ARC
  5
B6C
100
AcDbEntity
  8
0
100
AcDbCircle
 10
-0.164906
 20
-0.044906
 30
0.0
 40
0.013
100
AcDbArc
 50
315.0
 51
135.0
  0
LINE
  5
B6D
100
AcDbEntity
  8
0
100
AcDbLine
 10
-0.369192
 20
-0.230808
 30
0.0
 11
-0.174099
 21
-0.035714
 31
0.0
  0
LINE
  5
B6E
100
AcDbEntity
  8
0
100
AcDbLine
 10
-0.350808
 20
-0.249192
 30
0.0
 11
-0.155714
 21
-0.054099
 31
0.0
  0
ARC
  5
B6F
100
AcDbEntity
  8
0
100
AcDbCircle
 10
-0.246203
 20
-0.046203
 30
0.0
 40
0.013
100
AcDbArc
 50
315.0
 51
135.0
  0
LINE
  5
B70
100
AcDbEntity
  8
0
100
AcDbLine
 10
-0.350808
 20
-0.169192
 30
0.0
 11
-0.237011
 21
-0.055395
 31
0.0
  0
LINE
  5
B71
100
AcDbEntity
  8
0
100
AcDbLine
 10
-0.369192
 20
-0.150808
 30
0.0
 11
-0.255395
 21
-0.037011
 31
0.0
  0
ARC
  5
B72
100
AcDbEntity
  8
0
100
AcDbCircle
 10
-0.3275
 20
-0.0475
 30
0.0
 40
0.013
100
AcDbArc
 50
315.0
 51
135.0
  0
LINE
  5
B73
100
AcDbEntity
  8
0
100
AcDbLine
 10
-0.369192
 20
-0.070808
 30
0.0
 11
-0.336692
 21
-0.038307
 31
0.0
  0
LINE
  5
B74
100
AcDbEntity
  8
0
100
AcDbLine
 10
-0.350808
 20
-0.089192
 30
0.0
 11
-0.318307
 21
-0.056692
 31
0.0
  0
ARC
  5
B75
100
AcDbEntity
  8
0
100
AcDbCircle
 10
-0.36
 20
-0.08
 30
0.0
 40
0.013
100
AcDbArc
 50
135.0
 51
315.0
  0
ARC
  5
B76
100
AcDbEntity
  8
0
100
AcDbCircle
 10
-0.36
 20
-0.16
 30
0.0
 40
0.013
100
AcDbArc
 50
135.0
 51
315.0
  0
ARC
  5
B77
100
AcDbEntity
  8
0
100
AcDbCircle
 10
-0.36
 20
-0.24
 30
0.0
 40
0.013
100
AcDbArc
 50
135.0
 51
315.0
  0
ARC
  5
B78
100
AcDbEntity
  8
0
100
AcDbCircle
 10
-0.36
 20
-0.32
 30
0.0
 40
0.013
100
AcDbArc
 50
135.0
 51
315.0
  0
ARC
  5
B79
100
AcDbEntity
  8
0
100
AcDbCircle
 10
-0.32
 20
0.36
 30
0.0
 40
0.013
100
AcDbArc
 50
45.0
 51
225.0
  0
ARC
  5
B7A
100
AcDbEntity
  8
0
100
AcDbCircle
 10
-0.24
 20
0.36
 30
0.0
 40
0.013
100
AcDbArc
 50
45.0
 51
225.0
  0
ARC
  5
B7B
100
AcDbEntity
  8
0
100
AcDbCircle
 10
-0.16
 20
0.36
 30
0.0
 40
0.013
100
AcDbArc
 50
45.0
 51
225.0
  0
ARC
  5
B7C
100
AcDbEntity
  8
0
100
AcDbCircle
 10
-0.08
 20
0.36
 30
0.0
 40
0.013
100
AcDbArc
 50
45.0
 51
225.0
  0
LINE
  5
B7D
100
AcDbEntity
  8
0
100
AcDbLine
 10
-0.089192
 20
0.350808
 30
0.0
 11
-0.056692
 21
0.318307
 31
0.0
  0
LINE
  5
B7E
100
AcDbEntity
  8
0
100
AcDbLine
 10
-0.070808
 20
0.369192
 30
0.0
 11
-0.038307
 21
0.336692
 31
0.0
  0
ARC
  5
B7F
100
AcDbEntity
  8
0
100
AcDbCircle
 10
-0.0475
 20
0.3275
 30
0.0
 40
0.013
100
AcDbArc
 50
225.0
 51
45.0
  0
LINE
  5
B80
100
AcDbEntity
  8
0
100
AcDbLine
 10
-0.150808
 20
0.369192
 30
0.0
 11
-0.037011
 21
0.255395
 31
0.0
  0
LINE
  5
B81
100
AcDbEntity
  8
0
100
AcDbLine
 10
-0.169192
 20
0.350808
 30
0.0
 11
-0.055395
 21
0.237011
 31
0.0
  0
ARC
  5
B82
100
AcDbEntity
  8
0
100
AcDbCircle
 10
-0.046203
 20
0.246203
 30
0.0
 40
0.013
100
AcDbArc
 50
225.0
 51
45.0
  0
LINE
  5
B83
100
AcDbEntity
  8
0
100
AcDbLine
 10
-0.249192
 20
0.350808
 30
0.0
 11
-0.054099
 21
0.155714
 31
0.0
  0
LINE
  5
B84
100
AcDbEntity
  8
0
100
AcDbLine
 10
-0.230808
 20
0.369192
 30
0.0
 11
-0.035714
 21
0.174099
 31
0.0
  0
ARC
  5
B85
100
AcDbEntity
  8
0
100
AcDbCircle
 10
-0.044906
 20
0.164906
 30
0.0
 40
0.013
100
AcDbArc
 50
225.0
 51
45.0
  0
LINE
  5
B86
100
AcDbEntity
  8
0
100
AcDbLine
 10
-0.310808
 20
0.369192
 30
0.0
 11
-0.032244
 21
0.090629
 31
0.0
  0
LINE
  5
B87
100
AcDbEntity
  8
0
100
AcDbLine
 10
-0.329192
 20
0.350808
 30
0.0
 11
-0.050629
 21
0.072244
 31
0.0
  0
ARC
  5
B88
100
AcDbEntity
  8
0
100
AcDbCircle
 10
-0.041436
 20
0.081436
 30
0.0
 40
0.013
100
AcDbArc
 50
225.0
 51
45.0
  0
ARC
  5
B89
100
AcDbEntity
  8
0
100
AcDbCircle
 10
-0.081436
 20
0.041436
 30
0.0
 40
0.013
100
AcDbArc
 50
225.0
 51
45.0
  0
LINE
  5
B8A
100
AcDbEntity
  8
0
100
AcDbLine
 10
-0.350808
 20
0.329192
 30
0.0
 11
-0.072244
 21
0.050629
 31
0.0
  0
LINE
  5
B8B
100
AcDbEntity
  8
0
100
AcDbLine
 10
-0.369192
 20
0.310808
 30
0.0
 11
-0.090629
 21
0.032244
 31
0.0
  0
ARC
  5
B8C
100
AcDbEntity
  8
0
100
AcDbCircle
 10
-0.164906
 20
0.044906
 30
0.0
 40
0.013
100
AcDbArc
 50
225.0
 51
45.0
  0
LINE
  5
B8D
100
AcDbEntity
  8
0
100
AcDbLine
 10
-0.369192
 20
0.230808
 30
0.0
 11
-0.174099
 21
0.035714
 31
0.0
  0
LINE
  5
B8E
100
AcDbEntity
  8
0
100
AcDbLine
 10
-0.350808
 20
0.249192
 30
0.0
 11
-0.155714
 21
0.054099
 31
0.0
  0
ARC
  5
B8F
100
AcDbEntity
  8
0
100
AcDbCircle
 10
-0.246203
 20
0.046203
 30
0.0
 40
0.013
100
AcDbArc
 50
225.0
 51
45.0
  0
LINE
  5
B90
100
AcDbEntity
  8
0
100
AcDbLine
 10
-0.350808
 20
0.169192
 30
0.0
 11
-0.237011
 21
0.055395
 31
0.0
  0
LINE
  5
B91
100
AcDbEntity
  8
0
100
AcDbLine
 10
-0.369192
 20
0.150808
 30
0.0
 11
-0.255395
 21
0.037011
 31
0.0
  0
ARC
  5
B92
100
AcDbEntity
  8
0
100
AcDbCircle
 10
-0.3275
 20
0.0475
 30
0.0
 40
0.013
100
AcDbArc
 50
225.0
 51
45.0
  0
LINE
  5
B93
100
AcDbEntity
  8
0
100
AcDbLine
 10
-0.369192
 20
0.070808
 30
0.0
 11
-0.336692
 21
0.038307
 31
0.0
  0
LINE
  5
B94
100
AcDbEntity
  8
0
100
AcDbLine
 10
-0.350808
 20
0.089192
 30
0.0
 11
-0.318307
 21
0.056692
 31
0.0
  0
ARC
  5
B95
100
AcDbEntity
  8
0
100
AcDbCircle
 10
-0.36
 20
0.08
 30
0.0
 40
0.013
100
AcDbArc
 50
45.0
 51
225.0
  0
ARC
  5
B96
100
AcDbEntity
  8
0
100
AcDbCircle
 10
-0.36
 20
0.16
 30
0.0
 40
0.013
100
AcDbArc
 50
45.0
 51
225.0
  0
ARC
  5
B97
100
AcDbEntity
  8
0
100
AcDbCircle
 10
-0.36
 20
0.24
 30
0.0
 40
0.013
100
AcDbArc
 50
45.0
 51
225.0
  0
ARC
  5
B98
100
AcDbEntity
  8
0
100
AcDbCircle
 10
-0.36
 20
0.32
 30
0.0
 40
0.013
100
AcDbArc
 50
45.0
 51
225.0
  0
ENDBLK
  5
B9A
100
AcDbEntity
  8
0
100
AcDbBlockEnd
  0
BLOCK
  5
C31
100
AcDbEntity
  8
0
100
AcDbBlockBegin
  2
VOVRTULE
 70
     0
 10
0.0
 20
0.0
 30
0.0
  3
VOVRTULE
  1

  0
LINE
  5
C1F
100
AcDbEntity
  8
VZ1
  6
CONTINUOUS
100
AcDbLine
 10
0.0
 20
28.822222
 30
1.802979
 11
0.0
 21
94.218377
 31
5.893847
210
1.0
220
-0.0000000000000002
230
0.0000000000000001
  0
LINE
  5
C20
100
AcDbEntity
  8
VZ1
  6
CONTINUOUS
100
AcDbLine
 10
0.0
 20
25.714583
 30
-13.142733
 11
0.0
 21
84.059664
 31
-42.962925
210
1.0
220
-0.0000000000000002
230
0.0000000000000001
  0
LINE
  5
C21
100
AcDbEntity
  8
VZ1
  6
CONTINUOUS
100
AcDbLine
 10
0.0
 20
20.445725
 30
20.394694
 11
0.0
 21
66.836035
 31
66.669217
210
1.0
220
-0.0000000000000002
230
0.0000000000000001
  0
ARC
  5
C22
100
AcDbEntity
  8
VZ1
  6
CONTINUOUS
100
AcDbCircle
 10
0.0
 20
0.0
 30
0.0
 40
94.402542
210
1.0
220
0.0
230
-0.0000000000000002
100
AcDbArc
 50
44.928408
 51
75.579483
  0
CIRCLE
  5
C23
100
AcDbEntity
  8
VZ1
  6
CONTINUOUS
100
AcDbCircle
 10
0.0
 20
0.0
 30
0.0
 40
22.66879
210
1.0
220
0.0
230
-0.0000000000000002
  0
CIRCLE
  5
C24
100
AcDbEntity
  8
VZ1
  6
CONTINUOUS
100
AcDbCircle
 10
0.0
 20
0.0
 30
0.0
 40
28.87856
210
1.0
220
0.0
230
-0.0000000000000002
  0
POINT
  5
C25
100
AcDbEntity
  8
VZ1
  6
CONTINUOUS
100
AcDbPoint
 10
0.0
 20
0.0
 30
0.0
210
1.0
220
-0.0000000000000002
230
0.0000000000000001
 50
0.0
  0
LINE
  5
C26
100
AcDbEntity
  8
VZ1
  6
CONTINUOUS
100
AcDbLine
 10
0.0
 20
-28.52864
 30
-4.481958
 11
0.0
 21
-93.25867
 31
-14.651294
210
1.0
220
-0.0000000000000002
230
0.0000000000000001
  0
ARC
  5
C27
100
AcDbEntity
  8
VZ1
  6
CONTINUOUS
100
AcDbCircle
 10
0.0
 20
0.0
 30
0.0
 40
94.402542
210
1.0
220
0.0
230
-0.0000000000000002
100
AcDbArc
 50
188.928408
 51
219.579483
  0
LINE
  5
C28
100
AcDbEntity
  8
VZ1
  6
CONTINUOUS
100
AcDbLine
 10
0.0
 20
10.621291
 30
-26.854411
 11
0.0
 21
34.720461
 31
-87.785703
210
1.0
220
-0.0000000000000002
230
0.0000000000000001
  0
LINE
  5
C29
100
AcDbEntity
  8
VZ1
  6
CONTINUOUS
100
AcDbLine
 10
0.0
 20
-4.553239
 30
-28.51735
 11
0.0
 21
-14.884305
 31
-93.221765
210
1.0
220
-0.0000000000000002
230
0.0000000000000001
  0
ARC
  5
C2A
100
AcDbEntity
  8
VZ1
  6
CONTINUOUS
100
AcDbCircle
 10
0.0
 20
0.0
 30
0.0
 40
94.402542
210
1.0
220
0.0
230
-0.0000000000000002
100
AcDbArc
 50
260.928408
 51
291.579483
  0
LINE
  5
C2B
100
AcDbEntity
  8
VZ1
  6
CONTINUOUS
100
AcDbLine
 10
0.0
 20
-22.257903
 30
-18.399918
 11
0.0
 21
-72.759952
 31
-60.148395
210
1.0
220
-0.0000000000000002
230
0.0000000000000001
  0
LINE
  5
C2C
100
AcDbEntity
  8
VZ1
  6
CONTINUOUS
100
AcDbLine
 10
0.0
 20
-24.377432
 30
15.482637
 11
0.0
 21
-79.688584
 31
50.61195
210
1.0
220
-0.0000000000000002
230
0.0000000000000001
  0
ARC
  5
C2D
100
AcDbEntity
  8
VZ1
  6
CONTINUOUS
100
AcDbCircle
 10
0.0
 20
0.0
 30
0.0
 40
94.402542
210
1.0
220
0.0
230
-0.0000000000000002
100
AcDbArc
 50
116.928408
 51
147.579483
  0
LINE
  5
C2E
100
AcDbEntity
  8
VZ1
  6
CONTINUOUS
100
AcDbLine
 10
0.0
 20
-13.07843
 30
25.747347
 11
0.0
 21
-42.752723
 31
84.166767
210
1.0
220
-0.0000000000000002
230
0.0000000000000001
  0
LINE
  5
C2F
100
AcDbEntity
  8
VZ1
  6
CONTINUOUS
100
AcDbLine
 10
0.0
 20
7.191822
 30
27.968713
 11
0.0
 21
23.509698
 31
91.4283
210
1.0
220
-0.0000000000000002
230
0.0000000000000001
  0
ARC
  5
C30
100
AcDbEntity
  8
VZ1
  6
CONTINUOUS
100
AcDbCircle
 10
0.0
 20
0.0
 30
0.0
 40
94.402542
210
1.0
220
0.0
230
-0.0000000000000002
100
AcDbArc
 50
332.928408
 51
3.579483
  0
ENDBLK
  5
C32
100
AcDbEntity
  8
0
100
AcDbBlockEnd
  0
BLOCK
  5
F93
100
AcDbEntity
  8
0
100
AcDbBlockBegin
  2
A
 70
     0
 10
0.0
 20
0.0
 30
0.0
  3
A
  1

  0
ARC
  5
F94
100
AcDbEntity
  8
V0-OBRYS
  6
CONTINUOUS
 62
   255
100
AcDbCircle
 10
0.0
 20
0.0
 30
0.0
 40
32.5
210
0.0
220
-1.0
230
-0.0000000000000002
100
AcDbArc
 50
272.381876
 51
357.618124
  0
ARC
  5
F95
100
AcDbEntity
  8
V0-OBRYS
  6
CONTINUOUS
 62
   255
100
AcDbCircle
 10
0.0
 20
0.0
 30
0.0
 40
30.0
210
0.0
220
-1.0
230
-0.0000000000000002
100
AcDbArc
 50
182.580495
 51
357.419505
  0
ARC
  5
F96
100
AcDbEntity
  8
V0-OBRYS
  6
CONTINUOUS
 62
   255
100
AcDbCircle
 10
0.0
 20
0.0
 30
0.0
 40
32.5
210
0.0
220
-1.0
230
-0.0000000000000002
100
AcDbArc
 50
182.381876
 51
267.618124
  0
ARC
  5
F97
100
AcDbEntity
  8
V0-OBRYS
  6
CONTINUOUS
 62
   255
100
AcDbCircle
 10
0.0
 20
0.0
 30
0.0
 40
47.5
210
0.0
220
-1.0
230
-0.0000000000000002
100
AcDbArc
 50
271.629455
 51
358.370545
  0
ARC
  5
F98
100
AcDbEntity
  8
V0-OBRYS
  6
CONTINUOUS
 62
   255
100
AcDbCircle
 10
0.0
 20
0.0
 30
0.0
 40
45.0
210
0.0
220
-1.0
230
-0.0000000000000002
100
AcDbArc
 50
271.720007
 51
358.279993
  0
ARC
  5
F99
100
AcDbEntity
  8
V0-OBRYS
  6
CONTINUOUS
 62
   255
100
AcDbCircle
 10
0.0
 20
0.0
 30
0.0
 40
57.5
210
0.0
220
-1.0
230
-0.0000000000000002
100
AcDbArc
 50
1.346014
 51
0.0
  0
POLYLINE
  5
F9A
100
AcDbEntity
  8
VZ1
  6
CONTINUOUS
100
AcDbPolygonMesh
 66
     1
 10
0.0
 20
0.0
 30
0.0
 70
    16
 71
     6
 72
     3
  0
VERTEX
  5
F9B
100
AcDbEntity
  8
VZ1
  6
CONTINUOUS
100
AcDbVertex
100
AcDbPolygonMeshVertex
 10
81.5
 20
0.0
 30
81.5
 70
    64
  0
VERTEX
  5
F9C
100
AcDbEntity
  8
VZ1
  6
CONTINUOUS
100
AcDbVertex
100
AcDbPolygonMeshVertex
 10
81.5
 20
0.0
 30
-81.5
 70
    64
  0
VERTEX
  5
F9D
100
AcDbEntity
  8
VZ1
  6
CONTINUOUS
100
AcDbVertex
100
AcDbPolygonMeshVertex
 10
81.5
 20
0.0
 30
-81.5
 70
    64
  0
VERTEX
  5
F9E
100
AcDbEntity
  8
VZ1
  6
CONTINUOUS
100
AcDbVertex
100
AcDbPolygonMeshVertex
 10
-81.5
 20
0.0
 30
81.5
 70
    64
  0
VERTEX
  5
F9F
100
AcDbEntity
  8
VZ1
  6
CONTINUOUS
100
AcDbVertex
100
AcDbPolygonMeshVertex
 10
-81.5
 20
0.0
 30
-81.5
 70
    64
  0
VERTEX
  5
FA0
100
AcDbEntity
  8
VZ1
  6
CONTINUOUS
100
AcDbVertex
100
AcDbPolygonMeshVertex
 10
-81.5
 20
0.0
 30
-81.5
 70
    64
  0
VERTEX
  5
FA1
100
AcDbEntity
  8
VZ1
  6
CONTINUOUS
100
AcDbVertex
100
AcDbPolygonMeshVertex
 10
-81.5
 20
90.0
 30
81.5
 70
    64
  0
VERTEX
  5
FA2
100
AcDbEntity
  8
VZ1
  6
CONTINUOUS
100
AcDbVertex
100
AcDbPolygonMeshVertex
 10
-81.5
 20
90.0
 30
-81.5
 70
    64
  0
VERTEX
  5
FA3
100
AcDbEntity
  8
VZ1
  6
CONTINUOUS
100
AcDbVertex
100
AcDbPolygonMeshVertex
 10
-81.5
 20
0.0
 30
-81.5
 70
    64
  0
VERTEX
  5
FA4
100
AcDbEntity
  8
VZ1
  6
CONTINUOUS
100
AcDbVertex
100
AcDbPolygonMeshVertex
 10
81.5
 20
90.0
 30
81.5
 70
    64
  0
VERTEX
  5
FA5
100
AcDbEntity
  8
VZ1
  6
CONTINUOUS
100
AcDbVertex
100
AcDbPolygonMeshVertex
 10
81.5
 20
90.0
 30
-81.5
 70
    64
  0
VERTEX
  5
FA6
100
AcDbEntity
  8
VZ1
  6
CONTINUOUS
100
AcDbVertex
100
AcDbPolygonMeshVertex
 10
81.5
 20
0.0
 30
-81.5
 70
    64
  0
VERTEX
  5
FA7
100
AcDbEntity
  8
VZ1
  6
CONTINUOUS
100
AcDbVertex
100
AcDbPolygonMeshVertex
 10
81.5
 20
90.0
 30
81.5
 70
    64
  0
VERTEX
  5
FA8
100
AcDbEntity
  8
VZ1
  6
CONTINUOUS
100
AcDbVertex
100
AcDbPolygonMeshVertex
 10
81.5
 20
90.0
 30
81.5
 70
    64
  0
VERTEX
  5
FA9
100
AcDbEntity
  8
VZ1
  6
CONTINUOUS
100
AcDbVertex
100
AcDbPolygonMeshVertex
 10
81.5
 20
0.0
 30
81.5
 70
    64
  0
VERTEX
  5
FAA
100
AcDbEntity
  8
VZ1
  6
CONTINUOUS
100
AcDbVertex
100
AcDbPolygonMeshVertex
 10
-81.5
 20
90.0
 30
81.5
 70
    64
  0
VERTEX
  5
FAB
100
AcDbEntity
  8
VZ1
  6
CONTINUOUS
100
AcDbVertex
100
AcDbPolygonMeshVertex
 10
-81.5
 20
90.0
 30
81.5
 70
    64
  0
VERTEX
  5
FAC
100
AcDbEntity
  8
VZ1
  6
CONTINUOUS
100
AcDbVertex
100
AcDbPolygonMeshVertex
 10
-81.5
 20
0.0
 30
81.5
 70
    64
  0
SEQEND
  5
FAD
100
AcDbEntity
  8
VZ1
  6
CONTINUOUS
  0
ARC
  5
FAE
100
AcDbEntity
  8
V0-OBRYS
  6
CONTINUOUS
 62
   255
100
AcDbCircle
 10
0.0
 20
0.0
 30
0.0
 40
47.5
210
0.0
220
-1.0
230
-0.0000000000000002
100
AcDbArc
 50
181.629455
 51
268.370545
  0
ARC
  5
FAF
100
AcDbEntity
  8
V0-OBRYS
  6
CONTINUOUS
 62
   255
100
AcDbCircle
 10
0.0
 20
0.0
 30
0.0
 40
45.0
210
0.0
220
-1.0
230
-0.0000000000000002
100
AcDbArc
 50
181.720007
 51
268.279993
  0
3DSOLID
  5
FB0
100
AcDbEntity
  8
VZ1
  6
CONTINUOUS
100
AcDbModelerGeometry
 70
     1
  1
noi ko n o          
  1
=0;& {n {m {rn {rn |
  1
9@=0;&r3(;r>++-6= {rn {l {rn {o |
  1
3*2/ {k {rn {j {o |
  1
-:9@)+r3(;r>++-6= {rn {rn {n {o {i {h |
  1
-:9@)+r3(;r>++-6= {rn {rn {rn {m {i {h |
  1
,7:33 {g {rn {rn {f {m |
  1
-:961:2:1+ {rn o o o o nqmhmfkjokikmkgijh o o o m |
  1
):-+:'@+:2/3>+: {rn l o n g |
  1
-:9@)+r3(;r>++-6= {rn {rn {rn {j {i {h |
  1
9><: {no {nn {nm {j {rn {nl 90-(>-; ,6183: |
  1
-:9@)+r3(;r>++-6= {rn {rn {rn {f {i {rn |
  1
9><: {nk {nj {ni {j {rn {nh 90-(>-; ,6183: |
  1
300/ {rn {ng {nf {f |
  1
<01:r,*-9><: {rn o nmmqj o o rn rnqglifofjlohlljijf:roni kf o o n V V o n o V V V V |
  1
-:9@)+r3(;r>++-6= {rn {rn {rn {nn {i {rn |
  1
9><: {mo {rn {mn {j {rn {mm 90-(>-; ,6183: |
  1
300/ {rn {rn {ml {nn |
  1
/3>1:r,*-9><: {rn o njj nqkmnogjkhnjmomook:ronk o n nqglifofjlohlljijf:roni rn o o o V V V V |
  1
300/ {rn {rn {mk {f |
  1
<0:;8: {mj {nf {nf {ml {mi n {nm {rn |
  1
-:9@)+r3(;r>++-6= {rn {rn {rn {nj {i {rn |
  1
300/ {rn {rn {mh {nj |
  1
/3>1:r,*-9><: {rn o fo o o rn rnqglifofjlohlljijf:roni n o o o V V V V |
  1
<0:;8: {mg {ml {ml {nf {mi o {ni {rn |
  1
<0:;8: {mf {mk {mk {mh {lo n {ng {rn |
  1
<0/>-r3(;r>++-6= {rn {rn {rn {nf |
  1
:;8: {ln {lm {lm {ml {ll o |
  1
<0:;8: {lk {mh {mh {mk {lo o {mn {rn |
  1
<0/>-r3(;r>++-6= {rn {rn {rn {ml |
  1
<0/>-r3(;r>++-6= {rn {rn {rn {mk |
  1
:;8: {lj {li {li {mh {lh o |
  1
:/>-r3(;r>++-6= {rn {rn {rn {mi |
  1
):-+:' {rn {mi {lg |
  1
:336/,:r<*-): {rn o njj nqkmnogjkhnjmomook:ronk o n nqglifofjlohlljijf:roni kf o o n V V |
  1
<0/>-r3(;r>++-6= {rn {rn {rn {mh |
  1
:/>-r3(;r>++-6= {rn {rn {rn {lo |
  1
):-+:' {rn {lo {lf |
  1
:336/,:r<*-): {rn o fo o o rn rnqglifofjlohlljijf:roni kf o o n V V |
  1
/061+ {rn kf njj nqkmnogjkhnjmomook:ronk |
  1
/061+ {rn kf fo o |
  0
LWPOLYLINE
  5
FB1
100
AcDbEntity
  8
V0-KOTY
  6
CONTINUOUS
 62
   255
100
AcDbPolyline
 90
        4
 70
     0
 43
0.0
 38
-10.0
 39
10.0
 10
1.350687
 20
-29.878129
 10
1.350687
 20
-57.5
 10
-1.350687
 20
-57.5
 10
-1.350687
 20
-29.878129
210
0.0
220
-1.0
230
-0.0000000000000002
  0
ARC
  5
FB2
100
AcDbEntity
  8
V0-OBRYS
  6
CONTINUOUS
 62
   255
100
AcDbCircle
 10
0.0
 20
0.0
 30
0.0
 40
30.0
210
0.0
220
-1.0
230
-0.0000000000000002
100
AcDbArc
 50
2.580495
 51
177.419505
  0
ARC
  5
FB3
100
AcDbEntity
  8
V0-OBRYS
  6
CONTINUOUS
 62
   255
100
AcDbCircle
 10
0.0
 20
0.0
 30
0.0
 40
32.5
210
0.0
220
-1.0
230
-0.0000000000000002
100
AcDbArc
 50
92.381876
 51
177.618124
  0
ARC
  5
FB4
100
AcDbEntity
  8
V0-OBRYS
  6
CONTINUOUS
 62
   255
100
AcDbCircle
 10
0.0
 20
0.0
 30
0.0
 40
45.0
210
0.0
220
-1.0
230
-0.0000000000000002
100
AcDbArc
 50
91.720007
 51
178.279993
  0
ARC
  5
FB5
100
AcDbEntity
  8
V0-OBRYS
  6
CONTINUOUS
 62
   255
100
AcDbCircle
 10
0.0
 20
0.0
 30
0.0
 40
47.5
210
0.0
220
-1.0
230
-0.0000000000000002
100
AcDbArc
 50
91.629455
 51
178.370545
  0
LWPOLYLINE
  5
FB6
100
AcDbEntity
  8
V0-KOTY
  6
CONTINUOUS
 62
   255
100
AcDbPolyline
 90
        4
 70
     1
 43
0.0
 38
-10.0
 39
10.0
 10
-57.5
 20
-1.350687
 10
-57.5
 20
1.350687
 10
-29.878129
 20
1.350687
 10
-29.878129
 20
-1.350687
210
0.0
220
-1.0
230
-0.0000000000000002
  0
LWPOLYLINE
  5
FB7
100
AcDbEntity
  8
V0-KOTY
  6
CONTINUOUS
 62
   255
100
AcDbPolyline
 90
        4
 70
     1
 43
0.0
 38
-10.0
 39
10.0
 10
-1.350687
 20
57.5
 10
1.350687
 20
57.5
 10
1.350687
 20
29.878129
 10
-1.350687
 20
29.878129
210
0.0
220
-1.0
230
-0.0000000000000002
  0
ARC
  5
FB8
100
AcDbEntity
  8
V0-OBRYS
  6
CONTINUOUS
 62
   255
100
AcDbCircle
 10
0.0
 20
0.0
 30
0.0
 40
45.0
210
0.0
220
-1.0
230
-0.0000000000000002
100
AcDbArc
 50
1.720007
 51
88.279993
  0
ARC
  5
FB9
100
AcDbEntity
  8
V0-OBRYS
  6
CONTINUOUS
 62
   255
100
AcDbCircle
 10
0.0
 20
0.0
 30
0.0
 40
47.5
210
0.0
220
-1.0
230
-0.0000000000000002
100
AcDbArc
 50
1.629455
 51
88.370545
  0
LWPOLYLINE
  5
FBA
100
AcDbEntity
  8
V0-KOTY
  6
CONTINUOUS
 62
   255
100
AcDbPolyline
 90
        4
 70
     1
 43
0.0
 38
-10.0
 39
10.0
 10
57.5
 20
1.350687
 10
57.5
 20
-1.350687
 10
29.878129
 20
-1.350687
 10
29.878129
 20
1.350687
210
0.0
220
-1.0
230
-0.0000000000000002
  0
ARC
  5
FBB
100
AcDbEntity
  8
V0-OBRYS
  6
CONTINUOUS
 62
   255
100
AcDbCircle
 10
0.0
 20
0.0
 30
0.0
 40
32.5
210
0.0
220
-1.0
230
-0.0000000000000002
100
AcDbArc
 50
2.381876
 51
87.618124
  0
POINT
  5
FBC
100
AcDbEntity
  8
V0-KOTY
  6
CONTINUOUS
 62
   255
100
AcDbPoint
 10
0.0
 20
0.0
 30
0.0
210
0.0
220
-1.0
230
-0.0000000000000002
  0
ENDBLK
  5
FBD
100
AcDbEntity
  8
0
100
AcDbBlockEnd
  0
BLOCK
  5
F09
100
AcDbEntity
  8
0
100
AcDbBlockBegin
  2
_OPEN
 70
     0
 10
0.0
 20
0.0
 30
0.0
  3
_OPEN
  1

  0
LINE
  5
F06
100
AcDbEntity
  8
0
  6
BYBLOCK
 62
     0
100
AcDbLine
 10
-1.0
 20
0.166667
 30
0.0
 11
0.0
 21
0.0
 31
0.0
  0
LINE
  5
F07
100
AcDbEntity
  8
0
  6
BYBLOCK
 62
     0
100
AcDbLine
 10
0.0
 20
0.0
 30
0.0
 11
-1.0
 21
-0.166667
 31
0.0
  0
LINE
  5
F08
100
AcDbEntity
  8
0
  6
BYBLOCK
 62
     0
100
AcDbLine
 10
0.0
 20
0.0
 30
0.0
 11
-1.0
 21
0.0
 31
0.0
  0
ENDBLK
  5
F0A
100
AcDbEntity
  8
0
100
AcDbBlockEnd
  0
BLOCK
  5
F25
100
AcDbEntity
  8
0
100
AcDbBlockBegin
  2
MRIZ-KRUH2
 70
     0
 10
0.0
 20
0.0
 30
0.0
  3
MRIZ-KRUH2
  1

  0
LWPOLYLINE
  5
F11
100
AcDbEntity
  8
V0-KOTY
  6
CONTINUOUS
 62
    90
100
AcDbPolyline
 90
        4
 70
     0
 43
0.0
 39
10.0
 10
1.350687
 20
-29.878129
 10
1.350687
 20
-57.5
 10
-1.350687
 20
-57.5
 10
-1.350687
 20
-29.878129
  0
LWPOLYLINE
  5
F12
100
AcDbEntity
  8
V0-KOTY
  6
CONTINUOUS
 62
    90
100
AcDbPolyline
 90
        4
 70
     1
 43
0.0
 39
10.0
 10
57.5
 20
1.350687
 10
57.5
 20
-1.350687
 10
29.878129
 20
-1.350687
 10
29.878129
 20
1.350687
  0
LWPOLYLINE
  5
F13
100
AcDbEntity
  8
V0-KOTY
  6
CONTINUOUS
 62
    90
100
AcDbPolyline
 90
        4
 70
     1
 43
0.0
 39
10.0
 10
-57.5
 20
-1.350687
 10
-57.5
 20
1.350687
 10
-29.878129
 20
1.350687
 10
-29.878129
 20
-1.350687
  0
LWPOLYLINE
  5
F14
100
AcDbEntity
  8
V0-KOTY
  6
CONTINUOUS
 62
    90
100
AcDbPolyline
 90
        4
 70
     1
 43
0.0
 39
10.0
 10
-1.350687
 20
57.5
 10
1.350687
 20
57.5
 10
1.350687
 20
29.878129
 10
-1.350687
 20
29.878129
  0
ARC
  5
F15
100
AcDbEntity
  8
V0-OBRYS
  6
CONTINUOUS
 62
    90
100
AcDbCircle
 10
0.0
 20
0.0
 30
0.0
 40
47.5
100
AcDbArc
 50
181.629455
 51
268.370545
  0
ARC
  5
F16
100
AcDbEntity
  8
V0-OBRYS
  6
CONTINUOUS
 62
    90
100
AcDbCircle
 10
0.0
 20
0.0
 30
0.0
 40
57.5
100
AcDbArc
 50
1.346014
 51
0.0
  0
ARC
  5
F17
100
AcDbEntity
  8
V0-OBRYS
  6
CONTINUOUS
 62
    90
100
AcDbCircle
 10
0.0
 20
0.0
 30
0.0
 40
47.5
100
AcDbArc
 50
271.629455
 51
358.370545
  0
ARC
  5
F18
100
AcDbEntity
  8
V0-OBRYS
  6
CONTINUOUS
 62
    90
100
AcDbCircle
 10
0.0
 20
0.0
 30
0.0
 40
45.0
100
AcDbArc
 50
181.720007
 51
268.279993
  0
ARC
  5
F19
100
AcDbEntity
  8
V0-OBRYS
  6
CONTINUOUS
 62
    90
100
AcDbCircle
 10
0.0
 20
0.0
 30
0.0
 40
45.0
100
AcDbArc
 50
91.720007
 51
178.279993
  0
ARC
  5
F1A
100
AcDbEntity
  8
V0-OBRYS
  6
CONTINUOUS
 62
    90
100
AcDbCircle
 10
0.0
 20
0.0
 30
0.0
 40
47.5
100
AcDbArc
 50
91.629455
 51
178.370545
  0
ARC
  5
F1B
100
AcDbEntity
  8
V0-OBRYS
  6
CONTINUOUS
 62
    90
100
AcDbCircle
 10
0.0
 20
0.0
 30
0.0
 40
30.0
100
AcDbArc
 50
2.580495
 51
177.419505
  0
ARC
  5
F1C
100
AcDbEntity
  8
V0-OBRYS
  6
CONTINUOUS
 62
    90
100
AcDbCircle
 10
0.0
 20
0.0
 30
0.0
 40
32.5
100
AcDbArc
 50
92.381876
 51
177.618124
  0
ARC
  5
F1D
100
AcDbEntity
  8
V0-OBRYS
  6
CONTINUOUS
 62
    90
100
AcDbCircle
 10
0.0
 20
0.0
 30
0.0
 40
32.5
100
AcDbArc
 50
2.381876
 51
87.618124
  0
ARC
  5
F1E
100
AcDbEntity
  8
V0-OBRYS
  6
CONTINUOUS
 62
    90
100
AcDbCircle
 10
0.0
 20
0.0
 30
0.0
 40
45.0
100
AcDbArc
 50
1.720007
 51
88.279993
  0
ARC
  5
F1F
100
AcDbEntity
  8
V0-OBRYS
  6
CONTINUOUS
 62
    90
100
AcDbCircle
 10
0.0
 20
0.0
 30
0.0
 40
47.5
100
AcDbArc
 50
1.629455
 51
88.370545
  0
ARC
  5
F20
100
AcDbEntity
  8
V0-OBRYS
  6
CONTINUOUS
 62
    90
100
AcDbCircle
 10
0.0
 20
0.0
 30
0.0
 40
32.5
100
AcDbArc
 50
272.381876
 51
357.618124
  0
ARC
  5
F21
100
AcDbEntity
  8
V0-OBRYS
  6
CONTINUOUS
 62
    90
100
AcDbCircle
 10
0.0
 20
0.0
 30
0.0
 40
30.0
100
AcDbArc
 50
182.580495
 51
357.419505
  0
ARC
  5
F22
100
AcDbEntity
  8
V0-OBRYS
  6
CONTINUOUS
 62
    90
100
AcDbCircle
 10
0.0
 20
0.0
 30
0.0
 40
45.0
100
AcDbArc
 50
271.720007
 51
358.279993
  0
ARC
  5
F23
100
AcDbEntity
  8
V0-OBRYS
  6
CONTINUOUS
 62
    90
100
AcDbCircle
 10
0.0
 20
0.0
 30
0.0
 40
32.5
100
AcDbArc
 50
182.381876
 51
267.618124
  0
POINT
  5
F24
100
AcDbEntity
  8
V0-KOTY
  6
CONTINUOUS
100
AcDbPoint
 10
0.0
 20
0.0
 30
0.0
  0
ENDBLK
  5
F26
100
AcDbEntity
  8
0
100
AcDbBlockEnd
  0
ENDSEC
  0
SECTION
  2
ENTITIES
  0
INSERT
  5
FBE
100
AcDbEntity
  8
VZ1
  6
CONTINUOUS
100
AcDbBlockReference
  2
A
 10
0.0
 20
0.0
 30
0.0
  0
ENDSEC
  0
SECTION
  2
OBJECTS
  0
DICTIONARY
  5
81F
100
AcDbDictionary
  3
ACAD_GROUP
350
820
  3
ACAD_MLINESTYLE
350
82D
  3
ACDBVARIABLEDICTIONARY
350
83F
  0
DICTIONARY
  5
820
102
{ACAD_REACTORS
330
81F
102
}
100
AcDbDictionary
  0
DICTIONARY
  5
82D
102
{ACAD_REACTORS
330
81F
102
}
100
AcDbDictionary
  3
STANDARD
350
82E
  0
DICTIONARY
  5
83F
102
{ACAD_REACTORS
330
81F
102
}
100
AcDbDictionary
  3
DIMADEC
350
840
  0
MLINESTYLE
  5
82E
102
{ACAD_REACTORS
330
82D
102
}
100
AcDbMlineStyle
  2
STANDARD
 70
     0
  3

 62
   256
 51
90.0
 52
90.0
 71
     2
 49
0.5
 62
   256
  6
BYLAYER
 49
-0.5
 62
   256
  6
BYLAYER
  0
DICTIONARYVAR
  5
840
102
{ACAD_REACTORS
330
83F
102
}
100
DictionaryVariables
280
     0
  1
0
  0
ENDSEC
  0
EOF
