  0
SECTION
  2
HEADER
  9
$ACADVER
  1
AC1014
  9
$ACADMAINTVER
 70
     0
  9
$DWGCODEPAGE
  3
ANSI_1250
  9
$INSBASE
 10
0.0
 20
0.0
 30
0.0
  9
$EXTMIN
 10
-371.650309
 20
-357.410625
 30
-427.314622
  9
$EXTMAX
 10
28.073691
 20
331.5
 30
331.5
  9
$LIMMIN
 10
0.0
 20
0.0
  9
$LIMMAX
 10
420.0
 20
297.0
  9
$ORTHOMODE
 70
     1
  9
$REGENMODE
 70
     1
  9
$FILLMODE
 70
     0
  9
$QTEXTMODE
 70
     0
  9
$MIRRTEXT
 70
     1
  9
$DRAGMODE
 70
     2
  9
$LTSCALE
 40
1.0
  9
$OSMODE
 70
    47
  9
$ATTMODE
 70
     1
  9
$TEXTSIZE
 40
1.0
  9
$TRACEWID
 40
1.0
  9
$TEXTSTYLE
  7
ROMANS
  9
$CLAYER
  8
VZ1
  9
$CELTYPE
  6
CONTINUOUS
  9
$CECOLOR
 62
   256
  9
$CELTSCALE
 40
1.0
  9
$DELOBJ
 70
     1
  9
$DISPSILH
 70
     0
  9
$DIMSCALE
 40
1.0
  9
$DIMASZ
 40
2.0
  9
$DIMEXO
 40
0.625
  9
$DIMDLI
 40
3.75
  9
$DIMRND
 40
1.0
  9
$DIMDLE
 40
0.0
  9
$DIMEXE
 40
1.0
  9
$DIMTP
 40
0.0
  9
$DIMTM
 40
0.0
  9
$DIMTXT
 40
2.5
  9
$DIMCEN
 40
-100.0
  9
$DIMTSZ
 40
0.0
  9
$DIMTOL
 70
     0
  9
$DIMLIM
 70
     0
  9
$DIMTIH
 70
     0
  9
$DIMTOH
 70
     0
  9
$DIMSE1
 70
     0
  9
$DIMSE2
 70
     0
  9
$DIMTAD
 70
     1
  9
$DIMZIN
 70
     8
  9
$DIMBLK
  1

  9
$DIMASO
 70
     1
  9
$DIMSHO
 70
     1
  9
$DIMPOST
  1

  9
$DIMAPOST
  1

  9
$DIMALT
 70
     0
  9
$DIMALTD
 70
     4
  9
$DIMALTF
 40
0.0394
  9
$DIMLFAC
 40
1.0
  9
$DIMTOFL
 70
     1
  9
$DIMTVP
 40
2.0
  9
$DIMTIX
 70
     0
  9
$DIMSOXD
 70
     0
  9
$DIMSAH
 70
     1
  9
$DIMBLK1
  1
_OBLIQUE
  9
$DIMBLK2
  1
_OBLIQUE
  9
$DIMSTYLE
  2
STANEK
  9
$DIMCLRD
 70
     1
  9
$DIMCLRE
 70
     1
  9
$DIMCLRT
 70
     1
  9
$DIMTFAC
 40
2.2
  9
$DIMGAP
 40
0.625
  9
$DIMJUST
 70
     0
  9
$DIMSD1
 70
     0
  9
$DIMSD2
 70
     0
  9
$DIMTOLJ
 70
     1
  9
$DIMTZIN
 70
     8
  9
$DIMALTZ
 70
     8
  9
$DIMALTTZ
 70
     8
  9
$DIMFIT
 70
     5
  9
$DIMUPT
 70
     0
  9
$DIMUNIT
 70
     2
  9
$DIMDEC
 70
     4
  9
$DIMTDEC
 70
     4
  9
$DIMALTU
 70
     2
  9
$DIMALTTD
 70
     4
  9
$DIMTXSTY
  7
ROMANS
  9
$DIMAUNIT
 70
     0
  9
$LUNITS
 70
     2
  9
$LUPREC
 70
     4
  9
$SKETCHINC
 40
1.0
  9
$FILLETRAD
 40
10.0
  9
$AUNITS
 70
     0
  9
$AUPREC
 70
     0
  9
$MENU
  1
.
  9
$ELEVATION
 40
0.0
  9
$PELEVATION
 40
0.0
  9
$THICKNESS
 40
0.0
  9
$LIMCHECK
 70
     0
  9
$BLIPMODE
 70
     0
  9
$CHAMFERA
 40
10.0
  9
$CHAMFERB
 40
10.0
  9
$CHAMFERC
 40
0.0
  9
$CHAMFERD
 40
0.0
  9
$SKPOLY
 70
     0
  9
$TDCREATE
 40
2450990.465911806
  9
$TDUPDATE
 40
2452951.629676273
  9
$TDINDWG
 40
0.4833221065
  9
$TDUSRTIMER
 40
0.4833221065
  9
$USRTIMER
 70
     1
  9
$ANGBASE
 50
0.0
  9
$ANGDIR
 70
     0
  9
$PDMODE
 70
     3
  9
$PDSIZE
 40
0.0
  9
$PLINEWID
 40
0.0
  9
$COORDS
 70
     1
  9
$SPLFRAME
 70
     0
  9
$SPLINETYPE
 70
     6
  9
$SPLINESEGS
 70
     8
  9
$ATTDIA
 70
     0
  9
$ATTREQ
 70
     1
  9
$HANDLING
 70
     1
  9
$HANDSEED
  5
11F3
  9
$SURFTAB1
 70
    12
  9
$SURFTAB2
 70
     6
  9
$SURFTYPE
 70
     6
  9
$SURFU
 70
     6
  9
$SURFV
 70
     6
  9
$UCSNAME
  2

  9
$UCSORG
 10
0.0
 20
0.0
 30
0.0
  9
$UCSXDIR
 10
1.0
 20
0.0
 30
0.0
  9
$UCSYDIR
 10
0.0
 20
1.0
 30
0.0
  9
$PUCSNAME
  2

  9
$PUCSORG
 10
0.0
 20
0.0
 30
0.0
  9
$PUCSXDIR
 10
1.0
 20
0.0
 30
0.0
  9
$PUCSYDIR
 10
0.0
 20
1.0
 30
0.0
  9
$USERI1
 70
     1
  9
$USERI2
 70
     5
  9
$USERI3
 70
     2
  9
$USERI4
 70
     2
  9
$USERI5
 70
     6
  9
$USERR1
 40
281.0
  9
$USERR2
 40
321.0
  9
$USERR3
 40
0.0
  9
$USERR4
 40
0.0
  9
$USERR5
 40
0.0
  9
$WORLDVIEW
 70
     1
  9
$SHADEDGE
 70
     3
  9
$SHADEDIF
 70
    70
  9
$TILEMODE
 70
     1
  9
$MAXACTVP
 70
    48
  9
$PINSBASE
 10
0.0
 20
0.0
 30
0.0
  9
$PLIMCHECK
 70
     0
  9
$PEXTMIN
 10
1.000000E+20
 20
1.000000E+20
 30
1.000000E+20
  9
$PEXTMAX
 10
-1.000000E+20
 20
-1.000000E+20
 30
-1.000000E+20
  9
$PLIMMIN
 10
0.0
 20
0.0
  9
$PLIMMAX
 10
420.0
 20
297.0
  9
$UNITMODE
 70
     0
  9
$VISRETAIN
 70
     1
  9
$PLINEGEN
 70
     0
  9
$PSLTSCALE
 70
     1
  9
$TREEDEPTH
 70
  3020
  9
$PICKSTYLE
 70
     1
  9
$CMLSTYLE
  2
STANDARD
  9
$CMLJUST
 70
     0
  9
$CMLSCALE
 40
1.0
  9
$PROXYGRAPHICS
 70
     1
  9
$MEASUREMENT
 70
     0
  0
ENDSEC
  0
SECTION
  2
CLASSES
  0
CLASS
  1
DICTIONARYVAR
  2
AcDbDictionaryVar
  3
"AutoCAD"
 90
        0
280
     0
281
     0
  0
ENDSEC
  0
SECTION
  2
TABLES
  0
TABLE
  2
VPORT
  5
81B
100
AcDbSymbolTable
 70
    14
  0
VPORT
  5
11F2
100
AcDbSymbolTableRecord
100
AcDbViewportTableRecord
  2
*ACTIVE
 70
     0
 10
0.0
 20
0.0
 11
1.0
 21
1.0
 12
-10.718189
 22
-63.938705
 13
0.0
 23
0.0
 14
10.0
 24
10.0
 15
10.0
 25
10.0
 16
-1.460931
 26
-4.168734
 36
1.182686
 17
0.0
 27
0.0
 37
0.0
 40
1091.692176
 41
1.525194
 42
50.0
 43
0.0
 44
0.0
 50
0.0
 51
0.0
 71
     0
 72
   100
 73
     1
 74
     1
 75
     0
 76
     0
 77
     0
 78
     0
  0
ENDTAB
  0
TABLE
  2
LTYPE
  5
818
100
AcDbSymbolTable
 70
    11
  0
LTYPE
  5
824
100
AcDbSymbolTableRecord
100
AcDbLinetypeTableRecord
  2
BYBLOCK
 70
     0
  3

 72
    65
 73
     0
 40
0.0
  0
LTYPE
  5
825
100
AcDbSymbolTableRecord
100
AcDbLinetypeTableRecord
  2
BYLAYER
 70
     0
  3

 72
    65
 73
     0
 40
0.0
  0
LTYPE
  5
826
100
AcDbSymbolTableRecord
100
AcDbLinetypeTableRecord
  2
CONTINUOUS
 70
     0
  3
Solid line
 72
    65
 73
     0
 40
0.0
  0
LTYPE
  5
832
100
AcDbSymbolTableRecord
100
AcDbLinetypeTableRecord
  2
DASHED
 70
     0
  3
Dashed __ __ __ __ __ __ __ __ __ __ __ __ __ _
 72
    65
 73
     2
 40
19.05
 49
12.7
 74
     0
 49
-6.35
 74
     0
  0
LTYPE
  5
833
100
AcDbSymbolTableRecord
100
AcDbLinetypeTableRecord
  2
CENTER
 70
     0
  3
Center ____ _ ____ _ ____ _ ____ _ ____ _ ____
 72
    65
 73
     4
 40
50.8
 49
31.75
 74
     0
 49
-6.35
 74
     0
 49
6.35
 74
     0
 49
-6.35
 74
     0
  0
LTYPE
  5
834
100
AcDbSymbolTableRecord
100
AcDbLinetypeTableRecord
  2
DASHED2
 70
     0
  3
Dashed (.5x) _ _ _ _ _ _ _ _ _ _ _ _ _ _ _ _ _
 72
    65
 73
     2
 40
9.525
 49
6.35
 74
     0
 49
-3.175
 74
     0
  0
LTYPE
  5
8F0
100
AcDbSymbolTableRecord
100
AcDbLinetypeTableRecord
  2
HIDDEN
 70
     0
  3
_ _ _ _ _ _ _ _ _ _ _ _ _ _ _ _ _ _ _ _ _ _ _
 72
    65
 73
     2
 40
0.375
 49
0.25
 74
     0
 49
-0.125
 74
     0
  0
LTYPE
  5
8F1
100
AcDbSymbolTableRecord
100
AcDbLinetypeTableRecord
  2
CENTRE
 70
     0
  3
____ _ ____ _ ____ _ ____ _ ____ _ ____ _ ____
 72
    65
 73
     4
 40
2.0
 49
1.25
 74
     0
 49
-0.25
 74
     0
 49
0.25
 74
     0
 49
-0.25
 74
     0
  0
LTYPE
  5
8F2
100
AcDbSymbolTableRecord
100
AcDbLinetypeTableRecord
  2
PHANTOM
 70
     0
  3
_____ _ _ _____ _ _ _____ _ _ _____ _ _ ____
 72
    65
 73
     6
 40
2.5
 49
1.25
 74
     0
 49
-0.25
 74
     0
 49
0.25
 74
     0
 49
-0.25
 74
     0
 49
0.25
 74
     0
 49
-0.25
 74
     0
  0
LTYPE
  5
8F3
100
AcDbSymbolTableRecord
100
AcDbLinetypeTableRecord
  2
DOT
 70
     0
  3
...............................................
 72
    65
 73
     2
 40
0.25
 49
0.0
 74
     0
 49
-0.25
 74
     0
  0
LTYPE
  5
8F4
100
AcDbSymbolTableRecord
100
AcDbLinetypeTableRecord
  2
DASHDOT
 70
     0
  3
__ . __ . __ . __ . __ . __ . __ . __ . __ . __
 72
    65
 73
     4
 40
1.0
 49
0.5
 74
     0
 49
-0.25
 74
     0
 49
0.0
 74
     0
 49
-0.25
 74
     0
  0
LTYPE
  5
8F5
100
AcDbSymbolTableRecord
100
AcDbLinetypeTableRecord
  2
BORDER
 70
     0
  3
__ __ . __ __ . __ __ . __ __ . __ __ . __ __
 72
    65
 73
     6
 40
1.75
 49
0.5
 74
     0
 49
-0.25
 74
     0
 49
0.5
 74
     0
 49
-0.25
 74
     0
 49
0.0
 74
     0
 49
-0.25
 74
     0
  0
LTYPE
  5
8F6
100
AcDbSymbolTableRecord
100
AcDbLinetypeTableRecord
  2
DIVIDE
 70
     0
  3
__ . . __ . . __ . . __ . . __ . . __ . . __
 72
    65
 73
     6
 40
1.25
 49
0.5
 74
     0
 49
-0.25
 74
     0
 49
0.0
 74
     0
 49
-0.25
 74
     0
 49
0.0
 74
     0
 49
-0.25
 74
     0
  0
ENDTAB
  0
TABLE
  2
LAYER
  5
815
100
AcDbSymbolTable
 70
     6
  0
LAYER
  5
821
100
AcDbSymbolTableRecord
100
AcDbLayerTableRecord
  2
0
 70
     0
 62
     7
  6
CONTINUOUS
  0
LAYER
  5
838
100
AcDbSymbolTableRecord
100
AcDbLayerTableRecord
  2
DEFPOINTS
 70
     0
 62
     7
  6
CONTINUOUS
  0
LAYER
  5
839
100
AcDbSymbolTableRecord
100
AcDbLayerTableRecord
  2
VZ1
 70
     0
 62
     7
  6
CONTINUOUS
  0
LAYER
  5
83A
100
AcDbSymbolTableRecord
100
AcDbLayerTableRecord
  2
VZRAM
 70
     0
 62
     7
  6
CONTINUOUS
  0
LAYER
  5
8F7
100
AcDbSymbolTableRecord
100
AcDbLayerTableRecord
  2
VZ2
 70
     0
 62
     4
  6
CONTINUOUS
  0
LAYER
  5
8F8
100
AcDbSymbolTableRecord
100
AcDbLayerTableRecord
  2
VZ8
 70
     0
 62
     7
  6
CONTINUOUS
  0
ENDTAB
  0
TABLE
  2
STYLE
  5
816
100
AcDbSymbolTable
 70
     3
  0
STYLE
  5
822
100
AcDbSymbolTableRecord
100
AcDbTextStyleTableRecord
  2
STANDARD
 70
     0
 40
0.0
 41
0.8
 50
0.0
 71
     0
 42
2.5
  3
txt.shx
  4

  0
STYLE
  5
830
100
AcDbSymbolTableRecord
100
AcDbTextStyleTableRecord
  2

 70
     1
 40
0.0
 41
1.0
 50
0.0
 71
     0
 42
2.5
  3
ltypeshp.shx
  4

  0
STYLE
  5
831
100
AcDbSymbolTableRecord
100
AcDbTextStyleTableRecord
  2
ROMANS
 70
     0
 40
50.0
 41
0.8
 50
0.0
 71
     0
 42
1.0
  3
romans.shx
  4

  0
ENDTAB
  0
TABLE
  2
VIEW
  5
819
100
AcDbSymbolTable
 70
     0
  0
ENDTAB
  0
TABLE
  2
UCS
  5
81A
100
AcDbSymbolTable
 70
     5
  0
UCS
  5
845
100
AcDbSymbolTableRecord
100
AcDbUCSTableRecord
  2
1
 70
     0
 10
200.0
 20
0.0000000000000265
 30
276.0
 11
1.0
 21
0.0
 31
0.0
 12
0.0
 22
1.0
 32
0.0
  0
UCS
  5
855
100
AcDbSymbolTableRecord
100
AcDbUCSTableRecord
  2
VO
 70
     0
 10
200.0
 20
0.0000000000000265
 30
276.0
 11
1.0
 21
0.0
 31
0.0
 12
0.0
 22
1.0
 32
0.0
  0
UCS
  5
863
100
AcDbSymbolTableRecord
100
AcDbUCSTableRecord
  2
PUVUCS
 70
     0
 10
0.0
 20
0.0
 30
0.0
 11
1.0
 21
0.0
 31
0.0
 12
0.0
 22
1.0
 32
0.0
  0
UCS
  5
AE5
100
AcDbSymbolTableRecord
100
AcDbUCSTableRecord
  2
A
 70
     0
 10
200.0
 20
0.0000000000000265
 30
276.0
 11
-0.0000000000000002
 21
0.0
 31
-1.0
 12
0.0
 22
1.0
 32
0.0
  0
UCS
  5
AE6
100
AcDbSymbolTableRecord
100
AcDbUCSTableRecord
  2
B
 70
     0
 10
0.0
 20
0.0
 30
0.0
 11
1.0
 21
0.0
 31
0.0
 12
0.0
 22
-0.0000000000000002
 32
1.0
  0
ENDTAB
  0
TABLE
  2
APPID
  5
81C
100
AcDbSymbolTable
 70
     1
  0
APPID
  5
823
100
AcDbSymbolTableRecord
100
AcDbRegAppTableRecord
  2
ACAD
 70
     0
  0
ENDTAB
  0
TABLE
  2
DIMSTYLE
  5
81D
100
AcDbSymbolTable
 70
     2
  0
DIMSTYLE
105
836
100
AcDbSymbolTableRecord
100
AcDbDimStyleTableRecord
  2
STANDARD
 70
     0
  3

  4

  5

  6

  7

 40
1.0
 41
0.18
 42
0.0625
 43
0.38
 44
0.18
 45
0.0
 46
0.0
 47
0.0
 48
0.0
140
0.18
141
0.09
142
0.0
143
25.4
144
1.0
145
0.0
146
1.0
147
0.09
 71
     0
 72
     0
 73
     1
 74
     1
 75
     0
 76
     0
 77
     0
 78
     0
170
     0
171
     2
172
     0
173
     0
174
     0
175
     0
176
     0
177
     0
178
     0
270
     2
271
     4
272
     4
273
     2
274
     4
340
831
275
     0
280
     0
281
     0
282
     0
283
     1
284
     8
285
     8
286
     8
287
     5
288
     0
  0
DIMSTYLE
105
837
100
AcDbSymbolTableRecord
100
AcDbDimStyleTableRecord
  2
STANEK
 70
     0
  3

  4

  5

  6
_OBLIQUE
  7
_OBLIQUE
 40
0.0
 41
2.0
 42
0.625
 43
3.75
 44
1.0
 45
1.0
 46
0.0
 47
0.0
 48
0.0
140
2.2
141
-100.0
142
0.0
143
0.0394
144
2.2
145
2.0
146
2.2
147
0.625
 71
     0
 72
     0
 73
     0
 74
     0
 75
     0
 76
     0
 77
     1
 78
     8
170
     0
171
     4
172
     1
173
     1
174
     0
175
     0
176
     1
177
     1
178
     1
270
     2
271
     4
272
     4
273
     2
274
     4
340
831
275
     0
280
     0
281
     0
282
     0
283
     1
284
     8
285
     8
286
     8
287
     5
288
     0
  0
ENDTAB
  0
TABLE
  2
BLOCK_RECORD
  5
814
100
AcDbSymbolTable
 70
    39
  0
BLOCK_RECORD
  5
82A
100
AcDbSymbolTableRecord
100
AcDbBlockTableRecord
  2
*MODEL_SPACE
  0
BLOCK_RECORD
  5
827
100
AcDbSymbolTableRecord
100
AcDbBlockTableRecord
  2
*PAPER_SPACE
  0
BLOCK_RECORD
  5
82F
100
AcDbSymbolTableRecord
100
AcDbBlockTableRecord
  2
_OBLIQUE
  0
BLOCK_RECORD
  5
866
100
AcDbSymbolTableRecord
100
AcDbBlockTableRecord
  2
*X1
  0
BLOCK_RECORD
  5
87C
100
AcDbSymbolTableRecord
100
AcDbBlockTableRecord
  2
SMERA
  0
BLOCK_RECORD
  5
8B0
100
AcDbSymbolTableRecord
100
AcDbBlockTableRecord
  2
ZNVE
  0
BLOCK_RECORD
  5
8BF
100
AcDbSymbolTableRecord
100
AcDbBlockTableRecord
  2
ELE123V103_0
  0
BLOCK_RECORD
  5
8DC
100
AcDbSymbolTableRecord
100
AcDbBlockTableRecord
  2
ELE123V103_1
  0
BLOCK_RECORD
  5
8F9
100
AcDbSymbolTableRecord
100
AcDbBlockTableRecord
  2
VE011
  0
BLOCK_RECORD
  5
958
100
AcDbSymbolTableRecord
100
AcDbBlockTableRecord
  2
ELE123V103_2
  0
BLOCK_RECORD
  5
982
100
AcDbSymbolTableRecord
100
AcDbBlockTableRecord
  2
ELE123V103_3
  0
BLOCK_RECORD
  5
997
100
AcDbSymbolTableRecord
100
AcDbBlockTableRecord
  2
ELE123V103_4
  0
BLOCK_RECORD
  5
BE1
100
AcDbSymbolTableRecord
100
AcDbBlockTableRecord
  2
B
  0
BLOCK_RECORD
  5
C6A
100
AcDbSymbolTableRecord
100
AcDbBlockTableRecord
  2
A
  0
BLOCK_RECORD
  5
F0F
100
AcDbSymbolTableRecord
100
AcDbBlockTableRecord
  2
*D17
  0
BLOCK_RECORD
  5
F19
100
AcDbSymbolTableRecord
100
AcDbBlockTableRecord
  2
*D18
  0
BLOCK_RECORD
  5
F59
100
AcDbSymbolTableRecord
100
AcDbBlockTableRecord
  2
*D19
  0
BLOCK_RECORD
  5
F63
100
AcDbSymbolTableRecord
100
AcDbBlockTableRecord
  2
*D20
  0
BLOCK_RECORD
  5
F70
100
AcDbSymbolTableRecord
100
AcDbBlockTableRecord
  2
*D21
  0
BLOCK_RECORD
  5
F7D
100
AcDbSymbolTableRecord
100
AcDbBlockTableRecord
  2
*D22
  0
BLOCK_RECORD
  5
F88
100
AcDbSymbolTableRecord
100
AcDbBlockTableRecord
  2
*D23
  0
BLOCK_RECORD
  5
FD1
100
AcDbSymbolTableRecord
100
AcDbBlockTableRecord
  2
*D24
  0
BLOCK_RECORD
  5
FDB
100
AcDbSymbolTableRecord
100
AcDbBlockTableRecord
  2
*D25
  0
BLOCK_RECORD
  5
1023
100
AcDbSymbolTableRecord
100
AcDbBlockTableRecord
  2
*D26
  0
BLOCK_RECORD
  5
102D
100
AcDbSymbolTableRecord
100
AcDbBlockTableRecord
  2
*D27
  0
BLOCK_RECORD
  5
104B
100
AcDbSymbolTableRecord
100
AcDbBlockTableRecord
  2
*D28
  0
BLOCK_RECORD
  5
1113
100
AcDbSymbolTableRecord
100
AcDbBlockTableRecord
  2
*D29
  0
BLOCK_RECORD
  5
111D
100
AcDbSymbolTableRecord
100
AcDbBlockTableRecord
  2
*D30
  0
BLOCK_RECORD
  5
1127
100
AcDbSymbolTableRecord
100
AcDbBlockTableRecord
  2
*D31
  0
BLOCK_RECORD
  5
1134
100
AcDbSymbolTableRecord
100
AcDbBlockTableRecord
  2
*D32
  0
BLOCK_RECORD
  5
113F
100
AcDbSymbolTableRecord
100
AcDbBlockTableRecord
  2
*D33
  0
BLOCK_RECORD
  5
117E
100
AcDbSymbolTableRecord
100
AcDbBlockTableRecord
  2
*D34
  0
BLOCK_RECORD
  5
1188
100
AcDbSymbolTableRecord
100
AcDbBlockTableRecord
  2
*D35
  0
BLOCK_RECORD
  5
1192
100
AcDbSymbolTableRecord
100
AcDbBlockTableRecord
  2
*D36
  0
BLOCK_RECORD
  5
119F
100
AcDbSymbolTableRecord
100
AcDbBlockTableRecord
  2
*D37
  0
BLOCK_RECORD
  5
11AC
100
AcDbSymbolTableRecord
100
AcDbBlockTableRecord
  2
*D38
  0
ENDTAB
  0
ENDSEC
  0
SECTION
  2
BLOCKS
  0
BLOCK
  5
83D
100
AcDbEntity
  8
0
 62
     1
100
AcDbBlockBegin
  2
*MODEL_SPACE
 70
     0
 10
0.0
 20
0.0
 30
0.0
  3
*MODEL_SPACE
  1

  0
ENDBLK
  5
83E
100
AcDbEntity
  8
0
 62
     1
100
AcDbBlockEnd
  0
BLOCK
  5
83B
100
AcDbEntity
 67
     1
  8
0
 62
     1
100
AcDbBlockBegin
  2
*PAPER_SPACE
 70
     0
 10
0.0
 20
0.0
 30
0.0
  3
*PAPER_SPACE
  1

  0
ENDBLK
  5
83C
100
AcDbEntity
 67
     1
  8
0
 62
     1
100
AcDbBlockEnd
  0
BLOCK
  5
25
100
AcDbEntity
  8
0
100
AcDbBlockBegin
  2
_OBLIQUE
 70
     0
 10
0.0
 20
0.0
 30
0.0
  3
_OBLIQUE
  1

  0
LINE
  5
26
100
AcDbEntity
  8
0
  6
BYBLOCK
 62
     0
100
AcDbLine
 10
-0.5
 20
-0.5
 30
0.0
 11
0.5
 21
0.5
 31
0.0
  0
ENDBLK
  5
27
100
AcDbEntity
  8
0
100
AcDbBlockEnd
  0
BLOCK
  5
87A
100
AcDbEntity
  8
0
100
AcDbBlockBegin
  2
*X1
 70
     1
 10
0.0
 20
0.0
 30
0.0
  3
*X1
  1

  0
LINE
  5
867
100
AcDbEntity
  8
0
  6
CONTINUOUS
 62
     0
100
AcDbLine
 10
-0.455828
 20
1.956643
 30
3.695506
 11
0.455828
 21
1.956643
 31
3.394703
210
-0.0000000000000035
220
-1.0
230
0.0000000000000229
  0
LINE
  5
868
100
AcDbEntity
  8
0
  6
CONTINUOUS
 62
     0
100
AcDbLine
 10
-0.469015
 20
1.956643
 30
3.647206
 11
0.437682
 21
1.956643
 31
3.348039
210
-0.0000000000000035
220
-1.0
230
0.0000000000000229
  0
LINE
  5
869
100
AcDbEntity
  8
0
  6
CONTINUOUS
 62
     0
100
AcDbLine
 10
-0.47716
 20
1.956643
 30
3.597242
 11
0.414493
 21
1.956643
 31
3.303039
210
-0.0000000000000035
220
-1.0
230
0.0000000000000229
  0
LINE
  5
86A
100
AcDbEntity
  8
0
  6
CONTINUOUS
 62
     0
100
AcDbLine
 10
-0.48
 20
1.956643
 30
3.545527
 11
0.385999
 21
1.956643
 31
3.259789
210
-0.0000000000000035
220
-1.0
230
0.0000000000000229
  0
LINE
  5
86B
100
AcDbEntity
  8
0
  6
CONTINUOUS
 62
     0
100
AcDbLine
 10
-0.477042
 20
1.956643
 30
3.4919
 11
0.351708
 21
1.956643
 31
3.218452
210
-0.0000000000000035
220
-1.0
230
0.0000000000000229
  0
LINE
  5
86C
100
AcDbEntity
  8
0
  6
CONTINUOUS
 62
     0
100
AcDbLine
 10
-0.467456
 20
1.956643
 30
3.436085
 11
0.310788
 21
1.956643
 31
3.179303
210
-0.0000000000000035
220
-1.0
230
0.0000000000000229
  0
LINE
  5
86D
100
AcDbEntity
  8
0
  6
CONTINUOUS
 62
     0
100
AcDbLine
 10
-0.449832
 20
1.956643
 30
3.377619
 11
0.26183
 21
1.956643
 31
3.142805
210
-0.0000000000000035
220
-1.0
230
0.0000000000000229
  0
LINE
  5
86E
100
AcDbEntity
  8
0
  6
CONTINUOUS
 62
     0
100
AcDbLine
 10
-0.421607
 20
1.956643
 30
3.315655
 11
0.202272
 21
1.956643
 31
3.109805
210
-0.0000000000000035
220
-1.0
230
0.0000000000000229
  0
LINE
  5
86F
100
AcDbEntity
  8
0
  6
CONTINUOUS
 62
     0
100
AcDbLine
 10
-0.377303
 20
1.956643
 30
3.248385
 11
0.126634
 21
1.956643
 31
3.08211
210
-0.0000000000000035
220
-1.0
230
0.0000000000000229
  0
LINE
  5
870
100
AcDbEntity
  8
0
  6
CONTINUOUS
 62
     0
100
AcDbLine
 10
-0.299623
 20
1.956643
 30
3.170103
 11
0.01762
 21
1.956643
 31
3.065428
210
-0.0000000000000035
220
-1.0
230
0.0000000000000229
  0
LINE
  5
871
100
AcDbEntity
  8
0
  6
CONTINUOUS
 62
     0
100
AcDbLine
 10
-0.437682
 20
1.956643
 30
3.74217
 11
0.469015
 21
1.956643
 31
3.443003
210
-0.0000000000000035
220
-1.0
230
0.0000000000000229
  0
LINE
  5
872
100
AcDbEntity
  8
0
  6
CONTINUOUS
 62
     0
100
AcDbLine
 10
-0.414493
 20
1.956643
 30
3.78717
 11
0.47716
 21
1.956643
 31
3.492967
210
-0.0000000000000035
220
-1.0
230
0.0000000000000229
  0
LINE
  5
873
100
AcDbEntity
  8
0
  6
CONTINUOUS
 62
     0
100
AcDbLine
 10
-0.385999
 20
1.956643
 30
3.83042
 11
0.48
 21
1.956643
 31
3.544682
210
-0.0000000000000035
220
-1.0
230
0.0000000000000229
  0
LINE
  5
874
100
AcDbEntity
  8
0
  6
CONTINUOUS
 62
     0
100
AcDbLine
 10
-0.351708
 20
1.956643
 30
3.871757
 11
0.477042
 21
1.956643
 31
3.598309
210
-0.0000000000000035
220
-1.0
230
0.0000000000000229
  0
LINE
  5
875
100
AcDbEntity
  8
0
  6
CONTINUOUS
 62
     0
100
AcDbLine
 10
-0.310788
 20
1.956643
 30
3.910906
 11
0.467456
 21
1.956643
 31
3.654124
210
-0.0000000000000035
220
-1.0
230
0.0000000000000229
  0
LINE
  5
876
100
AcDbEntity
  8
0
  6
CONTINUOUS
 62
     0
100
AcDbLine
 10
-0.26183
 20
1.956643
 30
3.947404
 11
0.449832
 21
1.956643
 31
3.71259
210
-0.0000000000000035
220
-1.0
230
0.0000000000000229
  0
LINE
  5
877
100
AcDbEntity
  8
0
  6
CONTINUOUS
 62
     0
100
AcDbLine
 10
-0.202272
 20
1.956643
 30
3.980404
 11
0.421607
 21
1.956643
 31
3.774554
210
-0.0000000000000035
220
-1.0
230
0.0000000000000229
  0
LINE
  5
878
100
AcDbEntity
  8
0
  6
CONTINUOUS
 62
     0
100
AcDbLine
 10
-0.126634
 20
1.956643
 30
4.008099
 11
0.377303
 21
1.956643
 31
3.841824
210
-0.0000000000000035
220
-1.0
230
0.0000000000000229
  0
LINE
  5
879
100
AcDbEntity
  8
0
  6
CONTINUOUS
 62
     0
100
AcDbLine
 10
-0.01762
 20
1.956643
 30
4.024781
 11
0.299623
 21
1.956643
 31
3.920106
210
-0.0000000000000035
220
-1.0
230
0.0000000000000229
  0
ENDBLK
  5
87B
100
AcDbEntity
  8
0
100
AcDbBlockEnd
  0
BLOCK
  5
8AC
100
AcDbEntity
  8
0
100
AcDbBlockBegin
  2
SMERA
 70
     0
 10
0.0
 20
0.0
 30
0.0
  3
SMERA
  1

  0
POLYLINE
  5
87D
100
AcDbEntity
  8
0
  6
CONTINUOUS
 62
     2
100
AcDbPolygonMesh
 66
     1
 10
0.0
 20
0.0
 30
0.0
 70
    17
 71
     6
 72
     7
  0
VERTEX
  5
87E
100
AcDbEntity
  8
0
  6
CONTINUOUS
 62
     2
100
AcDbVertex
100
AcDbPolygonMeshVertex
 10
0.505343
 20
0.0
 30
1.992337
 70
    64
  0
VERTEX
  5
87F
100
AcDbEntity
  8
0
  6
CONTINUOUS
 62
     2
100
AcDbVertex
100
AcDbPolygonMeshVertex
 10
0.421119
 20
0.0
 30
2.449644
 70
    64
  0
VERTEX
  5
880
100
AcDbEntity
  8
0
  6
CONTINUOUS
 62
     2
100
AcDbVertex
100
AcDbPolygonMeshVertex
 10
0.336896
 20
0.0
 30
2.90695
 70
    64
  0
VERTEX
  5
881
100
AcDbEntity
  8
0
  6
CONTINUOUS
 62
     2
100
AcDbVertex
100
AcDbPolygonMeshVertex
 10
0.252672
 20
0.0
 30
3.364257
 70
    64
  0
VERTEX
  5
882
100
AcDbEntity
  8
0
  6
CONTINUOUS
 62
     2
100
AcDbVertex
100
AcDbPolygonMeshVertex
 10
0.168448
 20
0.0
 30
3.821564
 70
    64
  0
VERTEX
  5
883
100
AcDbEntity
  8
0
  6
CONTINUOUS
 62
     2
100
AcDbVertex
100
AcDbPolygonMeshVertex
 10
0.084224
 20
0.0
 30
4.278871
 70
    64
  0
VERTEX
  5
884
100
AcDbEntity
  8
0
  6
CONTINUOUS
 62
     2
100
AcDbVertex
100
AcDbPolygonMeshVertex
 10
0.0
 20
0.0
 30
4.736178
 70
    64
  0
VERTEX
  5
885
100
AcDbEntity
  8
0
  6
CONTINUOUS
 62
     2
100
AcDbVertex
100
AcDbPolygonMeshVertex
 10
0.252672
 20
-0.43764
 30
1.992337
 70
    64
  0
VERTEX
  5
886
100
AcDbEntity
  8
0
  6
CONTINUOUS
 62
     2
100
AcDbVertex
100
AcDbPolygonMeshVertex
 10
0.21056
 20
-0.3647
 30
2.449644
 70
    64
  0
VERTEX
  5
887
100
AcDbEntity
  8
0
  6
CONTINUOUS
 62
     2
100
AcDbVertex
100
AcDbPolygonMeshVertex
 10
0.168448
 20
-0.29176
 30
2.90695
 70
    64
  0
VERTEX
  5
888
100
AcDbEntity
  8
0
  6
CONTINUOUS
 62
     2
100
AcDbVertex
100
AcDbPolygonMeshVertex
 10
0.126336
 20
-0.21882
 30
3.364257
 70
    64
  0
VERTEX
  5
889
100
AcDbEntity
  8
0
  6
CONTINUOUS
 62
     2
100
AcDbVertex
100
AcDbPolygonMeshVertex
 10
0.084224
 20
-0.14588
 30
3.821564
 70
    64
  0
VERTEX
  5
88A
100
AcDbEntity
  8
0
  6
CONTINUOUS
 62
     2
100
AcDbVertex
100
AcDbPolygonMeshVertex
 10
0.042112
 20
-0.07294
 30
4.278871
 70
    64
  0
VERTEX
  5
88B
100
AcDbEntity
  8
0
  6
CONTINUOUS
 62
     2
100
AcDbVertex
100
AcDbPolygonMeshVertex
 10
0.0
 20
0.0
 30
4.736178
 70
    64
  0
VERTEX
  5
88C
100
AcDbEntity
  8
0
  6
CONTINUOUS
 62
     2
100
AcDbVertex
100
AcDbPolygonMeshVertex
 10
-0.252672
 20
-0.43764
 30
1.992337
 70
    64
  0
VERTEX
  5
88D
100
AcDbEntity
  8
0
  6
CONTINUOUS
 62
     2
100
AcDbVertex
100
AcDbPolygonMeshVertex
 10
-0.21056
 20
-0.3647
 30
2.449644
 70
    64
  0
VERTEX
  5
88E
100
AcDbEntity
  8
0
  6
CONTINUOUS
 62
     2
100
AcDbVertex
100
AcDbPolygonMeshVertex
 10
-0.168448
 20
-0.29176
 30
2.90695
 70
    64
  0
VERTEX
  5
88F
100
AcDbEntity
  8
0
  6
CONTINUOUS
 62
     2
100
AcDbVertex
100
AcDbPolygonMeshVertex
 10
-0.126336
 20
-0.21882
 30
3.364257
 70
    64
  0
VERTEX
  5
890
100
AcDbEntity
  8
0
  6
CONTINUOUS
 62
     2
100
AcDbVertex
100
AcDbPolygonMeshVertex
 10
-0.084224
 20
-0.14588
 30
3.821564
 70
    64
  0
VERTEX
  5
891
100
AcDbEntity
  8
0
  6
CONTINUOUS
 62
     2
100
AcDbVertex
100
AcDbPolygonMeshVertex
 10
-0.042112
 20
-0.07294
 30
4.278871
 70
    64
  0
VERTEX
  5
892
100
AcDbEntity
  8
0
  6
CONTINUOUS
 62
     2
100
AcDbVertex
100
AcDbPolygonMeshVertex
 10
0.0
 20
0.0
 30
4.736178
 70
    64
  0
VERTEX
  5
893
100
AcDbEntity
  8
0
  6
CONTINUOUS
 62
     2
100
AcDbVertex
100
AcDbPolygonMeshVertex
 10
-0.505343
 20
0.0
 30
1.992337
 70
    64
  0
VERTEX
  5
894
100
AcDbEntity
  8
0
  6
CONTINUOUS
 62
     2
100
AcDbVertex
100
AcDbPolygonMeshVertex
 10
-0.421119
 20
0.0
 30
2.449644
 70
    64
  0
VERTEX
  5
895
100
AcDbEntity
  8
0
  6
CONTINUOUS
 62
     2
100
AcDbVertex
100
AcDbPolygonMeshVertex
 10
-0.336896
 20
0.0
 30
2.90695
 70
    64
  0
VERTEX
  5
896
100
AcDbEntity
  8
0
  6
CONTINUOUS
 62
     2
100
AcDbVertex
100
AcDbPolygonMeshVertex
 10
-0.252672
 20
0.0
 30
3.364257
 70
    64
  0
VERTEX
  5
897
100
AcDbEntity
  8
0
  6
CONTINUOUS
 62
     2
100
AcDbVertex
100
AcDbPolygonMeshVertex
 10
-0.168448
 20
0.0
 30
3.821564
 70
    64
  0
VERTEX
  5
898
100
AcDbEntity
  8
0
  6
CONTINUOUS
 62
     2
100
AcDbVertex
100
AcDbPolygonMeshVertex
 10
-0.084224
 20
0.0
 30
4.278871
 70
    64
  0
VERTEX
  5
899
100
AcDbEntity
  8
0
  6
CONTINUOUS
 62
     2
100
AcDbVertex
100
AcDbPolygonMeshVertex
 10
0.0
 20
0.0
 30
4.736178
 70
    64
  0
VERTEX
  5
89A
100
AcDbEntity
  8
0
  6
CONTINUOUS
 62
     2
100
AcDbVertex
100
AcDbPolygonMeshVertex
 10
-0.252672
 20
0.43764
 30
1.992337
 70
    64
  0
VERTEX
  5
89B
100
AcDbEntity
  8
0
  6
CONTINUOUS
 62
     2
100
AcDbVertex
100
AcDbPolygonMeshVertex
 10
-0.21056
 20
0.3647
 30
2.449644
 70
    64
  0
VERTEX
  5
89C
100
AcDbEntity
  8
0
  6
CONTINUOUS
 62
     2
100
AcDbVertex
100
AcDbPolygonMeshVertex
 10
-0.168448
 20
0.29176
 30
2.90695
 70
    64
  0
VERTEX
  5
89D
100
AcDbEntity
  8
0
  6
CONTINUOUS
 62
     2
100
AcDbVertex
100
AcDbPolygonMeshVertex
 10
-0.126336
 20
0.21882
 30
3.364257
 70
    64
  0
VERTEX
  5
89E
100
AcDbEntity
  8
0
  6
CONTINUOUS
 62
     2
100
AcDbVertex
100
AcDbPolygonMeshVertex
 10
-0.084224
 20
0.14588
 30
3.821564
 70
    64
  0
VERTEX
  5
89F
100
AcDbEntity
  8
0
  6
CONTINUOUS
 62
     2
100
AcDbVertex
100
AcDbPolygonMeshVertex
 10
-0.042112
 20
0.07294
 30
4.278871
 70
    64
  0
VERTEX
  5
8A0
100
AcDbEntity
  8
0
  6
CONTINUOUS
 62
     2
100
AcDbVertex
100
AcDbPolygonMeshVertex
 10
0.0
 20
0.0
 30
4.736178
 70
    64
  0
VERTEX
  5
8A1
100
AcDbEntity
  8
0
  6
CONTINUOUS
 62
     2
100
AcDbVertex
100
AcDbPolygonMeshVertex
 10
0.252672
 20
0.43764
 30
1.992337
 70
    64
  0
VERTEX
  5
8A2
100
AcDbEntity
  8
0
  6
CONTINUOUS
 62
     2
100
AcDbVertex
100
AcDbPolygonMeshVertex
 10
0.21056
 20
0.3647
 30
2.449644
 70
    64
  0
VERTEX
  5
8A3
100
AcDbEntity
  8
0
  6
CONTINUOUS
 62
     2
100
AcDbVertex
100
AcDbPolygonMeshVertex
 10
0.168448
 20
0.29176
 30
2.90695
 70
    64
  0
VERTEX
  5
8A4
100
AcDbEntity
  8
0
  6
CONTINUOUS
 62
     2
100
AcDbVertex
100
AcDbPolygonMeshVertex
 10
0.126336
 20
0.21882
 30
3.364257
 70
    64
  0
VERTEX
  5
8A5
100
AcDbEntity
  8
0
  6
CONTINUOUS
 62
     2
100
AcDbVertex
100
AcDbPolygonMeshVertex
 10
0.084224
 20
0.14588
 30
3.821564
 70
    64
  0
VERTEX
  5
8A6
100
AcDbEntity
  8
0
  6
CONTINUOUS
 62
     2
100
AcDbVertex
100
AcDbPolygonMeshVertex
 10
0.042112
 20
0.07294
 30
4.278871
 70
    64
  0
VERTEX
  5
8A7
100
AcDbEntity
  8
0
  6
CONTINUOUS
 62
     2
100
AcDbVertex
100
AcDbPolygonMeshVertex
 10
0.0
 20
0.0
 30
4.736178
 70
    64
  0
SEQEND
  5
8A8
100
AcDbEntity
  8
0
  6
CONTINUOUS
 62
     2
  0
CIRCLE
  5
8A9
100
AcDbEntity
  8
0
  6
CONTINUOUS
 62
     5
100
AcDbCircle
 10
0.0
 20
0.0
 30
2.000272
 40
0.528
  0
INSERT
  5
8AA
100
AcDbEntity
  8
0
  6
CONTINUOUS
 62
     5
100
AcDbBlockReference
  2
*X1
 10
0.0
 20
4.048296
 30
-3.899615
 41
1.1
 42
1.1
 43
1.1
 50
180.0
210
-1.0
220
0.0
230
0.0
1001
ACAD
1000
HATCH
1002
{
1070
    16
1000
ANSI31
1040
0.4
1040
2.03749
1002
}
  0
LINE
  5
8AB
100
AcDbEntity
  8
0
  6
CONTINUOUS
 62
     2
100
AcDbLine
 10
0.0
 20
0.0
 30
0.0
 11
0.0
 21
0.0
 31
4.736178
210
0.0
220
1.0
230
0.0
  0
ENDBLK
  5
8AD
100
AcDbEntity
  8
0
100
AcDbBlockEnd
  0
BLOCK
  5
8B5
100
AcDbEntity
  8
0
 62
     2
100
AcDbBlockBegin
  2
ZNVE
 70
     0
 10
0.0
 20
0.0
 30
0.0
  3
ZNVE
  1

  0
CIRCLE
  5
8B1
100
AcDbEntity
  8
0
  6
CONTINUOUS
 62
     7
100
AcDbCircle
 10
0.0
 20
0.0
 30
0.0
 40
0.5
  0
LINE
  5
8B2
100
AcDbEntity
  8
0
  6
CONTINUOUS
 62
     7
100
AcDbLine
 10
0.5
 20
0.0
 30
0.0
 11
-0.25
 21
0.433013
 31
0.0
  0
LINE
  5
8B3
100
AcDbEntity
  8
0
  6
CONTINUOUS
 62
     7
100
AcDbLine
 10
0.5
 20
0.0
 30
0.0
 11
-0.25
 21
-0.433013
 31
0.0
  0
LINE
  5
8B4
100
AcDbEntity
  8
0
  6
CONTINUOUS
 62
     7
100
AcDbLine
 10
-0.25
 20
0.433013
 30
0.0
 11
-0.25
 21
-0.433013
 31
0.0
  0
ENDBLK
  5
8B6
100
AcDbEntity
  8
0
 62
     2
100
AcDbBlockEnd
  0
BLOCK
  5
8C0
100
AcDbEntity
  8
0
100
AcDbBlockBegin
  2
ELE123V103_0
 70
     2
 10
0.0
 20
0.0
 30
0.0
  3
ELE123V103_0
  1

  0
CIRCLE
  5
8C1
100
AcDbEntity
  8
VZ1
  6
CONTINUOUS
 62
     2
100
AcDbCircle
 39
176.0
 10
0.0
 20
0.0
 30
0.0
 40
177.5
  0
INSERT
  5
8C2
100
AcDbEntity
  8
VZ1
  6
CONTINUOUS
 62
     2
100
AcDbBlockReference
  2
ZNVE
 10
0.0
 20
88.0
 30
187.5
 41
140.8
 42
140.8
 43
140.8
 50
270.0
210
1.0
220
0.0
230
-0.0000000000000002
  0
INSERT
  5
8C3
100
AcDbEntity
  8
VZ1
  6
CONTINUOUS
 62
     2
100
AcDbBlockReference
  2
ZNVE
 10
0.0
 20
88.0
 30
187.5
 41
140.8
 42
140.8
 43
140.8
 50
270.0
210
0.0000000000000001
220
1.0
230
-0.0000000000000002
  0
INSERT
  5
8C4
100
AcDbEntity
  8
VZ1
  6
CONTINUOUS
 62
     2
100
AcDbBlockReference
  2
ZNVE
 10
0.0
 20
88.0
 30
187.5
 41
140.8
 42
140.8
 43
140.8
 50
270.0
210
-1.0
220
0.0000000000000001
230
-0.0000000000000002
  0
INSERT
  5
8C5
100
AcDbEntity
  8
VZ1
  6
CONTINUOUS
 62
     2
100
AcDbBlockReference
  2
ZNVE
 10
0.0
 20
88.0
 30
187.5
 41
140.8
 42
140.8
 43
140.8
 50
270.0
210
-0.0000000000000002
220
-1.0
230
-0.0000000000000002
  0
ATTDEF
  5
8C6
100
AcDbEntity
  8
VZ1
  6
CONTINUOUS
 62
     2
100
AcDbText
 10
0.0
 20
0.0
 30
0.0
 40
1.0
  1
3383
 41
0.8
  7
ROMANS
100
AcDbAttributeDefinition
  3

  2
VETA
 70
     1
  0
ATTDEF
  5
8C7
100
AcDbEntity
  8
VZ1
  6
CONTINUOUS
 62
     2
100
AcDbText
 10
0.0
 20
0.0
 30
0.0
 40
1.0
  1

 41
0.8
  7
ROMANS
100
AcDbAttributeDefinition
  3

  2
POS
 70
     1
  0
ATTDEF
  5
8C8
100
AcDbEntity
  8
VZ1
  6
CONTINUOUS
 62
     2
100
AcDbText
 10
0.0
 20
0.0
 30
0.0
 40
1.0
  1
TCFB/4-355 H
 41
0.8
  7
ROMANS
100
AcDbAttributeDefinition
  3

  2
NAZEV
 70
     1
  0
ATTDEF
  5
8C9
100
AcDbEntity
  8
VZ1
  6
CONTINUOUS
 62
     2
100
AcDbText
 10
0.0
 20
0.0
 30
0.0
 40
1.0
  1

 41
0.8
  7
ROMANS
100
AcDbAttributeDefinition
  3

  2
TYP
 70
     1
  0
ENDBLK
  5
8CA
100
AcDbEntity
  8
0
100
AcDbBlockEnd
  0
BLOCK
  5
8DD
100
AcDbEntity
  8
0
100
AcDbBlockBegin
  2
ELE123V103_1
 70
     2
 10
0.0
 20
0.0
 30
0.0
  3
ELE123V103_1
  1

  0
CIRCLE
  5
8DE
100
AcDbEntity
  8
VZ1
  6
CONTINUOUS
 62
     2
100
AcDbCircle
 39
176.0
 10
0.0
 20
0.0
 30
0.0
 40
177.5
  0
INSERT
  5
8DF
100
AcDbEntity
  8
VZ1
  6
CONTINUOUS
 62
     2
100
AcDbBlockReference
  2
ZNVE
 10
0.0
 20
88.0
 30
187.5
 41
140.8
 42
140.8
 43
140.8
 50
270.0
210
1.0
220
0.0
230
-0.0000000000000002
  0
INSERT
  5
8E0
100
AcDbEntity
  8
VZ1
  6
CONTINUOUS
 62
     2
100
AcDbBlockReference
  2
ZNVE
 10
0.0
 20
88.0
 30
187.5
 41
140.8
 42
140.8
 43
140.8
 50
270.0
210
0.0000000000000001
220
1.0
230
-0.0000000000000002
  0
INSERT
  5
8E1
100
AcDbEntity
  8
VZ1
  6
CONTINUOUS
 62
     2
100
AcDbBlockReference
  2
ZNVE
 10
0.0
 20
88.0
 30
187.5
 41
140.8
 42
140.8
 43
140.8
 50
270.0
210
-1.0
220
0.0000000000000001
230
-0.0000000000000002
  0
INSERT
  5
8E2
100
AcDbEntity
  8
VZ1
  6
CONTINUOUS
 62
     2
100
AcDbBlockReference
  2
ZNVE
 10
0.0
 20
88.0
 30
187.5
 41
140.8
 42
140.8
 43
140.8
 50
270.0
210
-0.0000000000000002
220
-1.0
230
-0.0000000000000002
  0
ATTDEF
  5
8E3
100
AcDbEntity
  8
VZ1
  6
CONTINUOUS
 62
     2
100
AcDbText
 10
0.0
 20
0.0
 30
0.0
 40
1.0
  1
3383
 41
0.8
  7
ROMANS
100
AcDbAttributeDefinition
  3

  2
VETA
 70
     1
  0
ATTDEF
  5
8E4
100
AcDbEntity
  8
VZ1
  6
CONTINUOUS
 62
     2
100
AcDbText
 10
0.0
 20
0.0
 30
0.0
 40
1.0
  1

 41
0.8
  7
ROMANS
100
AcDbAttributeDefinition
  3

  2
POS
 70
     1
  0
ATTDEF
  5
8E5
100
AcDbEntity
  8
VZ1
  6
CONTINUOUS
 62
     2
100
AcDbText
 10
0.0
 20
0.0
 30
0.0
 40
1.0
  1
TCFB/4-355 H
 41
0.8
  7
ROMANS
100
AcDbAttributeDefinition
  3

  2
NAZEV
 70
     1
  0
ATTDEF
  5
8E6
100
AcDbEntity
  8
VZ1
  6
CONTINUOUS
 62
     2
100
AcDbText
 10
0.0
 20
0.0
 30
0.0
 40
1.0
  1

 41
0.8
  7
ROMANS
100
AcDbAttributeDefinition
  3

  2
TYP
 70
     1
  0
ENDBLK
  5
8E7
100
AcDbEntity
  8
0
100
AcDbBlockEnd
  0
BLOCK
  5
951
100
AcDbEntity
  8
0
 62
     2
100
AcDbBlockBegin
  2
VE011
 70
     0
 10
0.0
 20
0.0
 30
0.0
  3
VE011
  1

  0
LINE
  5
8FA
100
AcDbEntity
  8
0
  6
CONTINUOUS
 62
     7
100
AcDbLine
 10
0.0
 20
0.0
 30
0.0
 11
0.0
 21
0.0
 31
1.0
  0
POLYLINE
  5
8FB
100
AcDbEntity
  8
0
  6
CONTINUOUS
 62
     7
100
AcDbPolygonMesh
 66
     1
 10
0.0
 20
0.0
 30
0.0
 70
    48
 71
     2
 72
     8
  0
VERTEX
  5
8FC
100
AcDbEntity
  8
0
  6
CONTINUOUS
 62
     7
100
AcDbVertex
100
AcDbPolygonMeshVertex
 10
0.5
 20
0.0
 30
0.0
 70
    64
  0
VERTEX
  5
8FD
100
AcDbEntity
  8
0
  6
CONTINUOUS
 62
     7
100
AcDbVertex
100
AcDbPolygonMeshVertex
 10
0.353553
 20
0.353553
 30
0.0
 70
    64
  0
VERTEX
  5
8FE
100
AcDbEntity
  8
0
  6
CONTINUOUS
 62
     7
100
AcDbVertex
100
AcDbPolygonMeshVertex
 10
0.0
 20
0.5
 30
0.0
 70
    64
  0
VERTEX
  5
8FF
100
AcDbEntity
  8
0
  6
CONTINUOUS
 62
     7
100
AcDbVertex
100
AcDbPolygonMeshVertex
 10
-0.353553
 20
0.353553
 30
0.0
 70
    64
  0
VERTEX
  5
900
100
AcDbEntity
  8
0
  6
CONTINUOUS
 62
     7
100
AcDbVertex
100
AcDbPolygonMeshVertex
 10
-0.5
 20
0.0
 30
0.0
 70
    64
  0
VERTEX
  5
901
100
AcDbEntity
  8
0
  6
CONTINUOUS
 62
     7
100
AcDbVertex
100
AcDbPolygonMeshVertex
 10
-0.353553
 20
-0.353553
 30
0.0
 70
    64
  0
VERTEX
  5
902
100
AcDbEntity
  8
0
  6
CONTINUOUS
 62
     7
100
AcDbVertex
100
AcDbPolygonMeshVertex
 10
0.0
 20
-0.5
 30
0.0
 70
    64
  0
VERTEX
  5
903
100
AcDbEntity
  8
0
  6
CONTINUOUS
 62
     7
100
AcDbVertex
100
AcDbPolygonMeshVertex
 10
0.353553
 20
-0.353553
 30
0.0
 70
    64
  0
VERTEX
  5
904
100
AcDbEntity
  8
0
  6
CONTINUOUS
 62
     7
100
AcDbVertex
100
AcDbPolygonMeshVertex
 10
0.7
 20
0.0
 30
0.22
 70
    64
  0
VERTEX
  5
905
100
AcDbEntity
  8
0
  6
CONTINUOUS
 62
     7
100
AcDbVertex
100
AcDbPolygonMeshVertex
 10
0.494975
 20
0.494975
 30
0.22
 70
    64
  0
VERTEX
  5
906
100
AcDbEntity
  8
0
  6
CONTINUOUS
 62
     7
100
AcDbVertex
100
AcDbPolygonMeshVertex
 10
0.0
 20
0.7
 30
0.22
 70
    64
  0
VERTEX
  5
907
100
AcDbEntity
  8
0
  6
CONTINUOUS
 62
     7
100
AcDbVertex
100
AcDbPolygonMeshVertex
 10
-0.494975
 20
0.494975
 30
0.22
 70
    64
  0
VERTEX
  5
908
100
AcDbEntity
  8
0
  6
CONTINUOUS
 62
     7
100
AcDbVertex
100
AcDbPolygonMeshVertex
 10
-0.7
 20
0.0
 30
0.22
 70
    64
  0
VERTEX
  5
909
100
AcDbEntity
  8
0
  6
CONTINUOUS
 62
     7
100
AcDbVertex
100
AcDbPolygonMeshVertex
 10
-0.494975
 20
-0.494975
 30
0.22
 70
    64
  0
VERTEX
  5
90A
100
AcDbEntity
  8
0
  6
CONTINUOUS
 62
     7
100
AcDbVertex
100
AcDbPolygonMeshVertex
 10
0.0
 20
-0.7
 30
0.22
 70
    64
  0
VERTEX
  5
90B
100
AcDbEntity
  8
0
  6
CONTINUOUS
 62
     7
100
AcDbVertex
100
AcDbPolygonMeshVertex
 10
0.494975
 20
-0.494975
 30
0.22
 70
    64
  0
SEQEND
  5
90C
100
AcDbEntity
  8
0
  6
CONTINUOUS
 62
     7
  0
POLYLINE
  5
90D
100
AcDbEntity
  8
0
  6
CONTINUOUS
 62
     7
100
AcDbPolygonMesh
 66
     1
 10
0.0
 20
0.0
 30
0.0
 70
    48
 71
     2
 72
     8
  0
VERTEX
  5
90E
100
AcDbEntity
  8
0
  6
CONTINUOUS
 62
     7
100
AcDbVertex
100
AcDbPolygonMeshVertex
 10
0.7
 20
0.0
 30
0.22
 70
    64
  0
VERTEX
  5
90F
100
AcDbEntity
  8
0
  6
CONTINUOUS
 62
     7
100
AcDbVertex
100
AcDbPolygonMeshVertex
 10
0.494975
 20
0.494975
 30
0.22
 70
    64
  0
VERTEX
  5
910
100
AcDbEntity
  8
0
  6
CONTINUOUS
 62
     7
100
AcDbVertex
100
AcDbPolygonMeshVertex
 10
0.0
 20
0.7
 30
0.22
 70
    64
  0
VERTEX
  5
911
100
AcDbEntity
  8
0
  6
CONTINUOUS
 62
     7
100
AcDbVertex
100
AcDbPolygonMeshVertex
 10
-0.494975
 20
0.494975
 30
0.22
 70
    64
  0
VERTEX
  5
912
100
AcDbEntity
  8
0
  6
CONTINUOUS
 62
     7
100
AcDbVertex
100
AcDbPolygonMeshVertex
 10
-0.7
 20
0.0
 30
0.22
 70
    64
  0
VERTEX
  5
913
100
AcDbEntity
  8
0
  6
CONTINUOUS
 62
     7
100
AcDbVertex
100
AcDbPolygonMeshVertex
 10
-0.494975
 20
-0.494975
 30
0.22
 70
    64
  0
VERTEX
  5
914
100
AcDbEntity
  8
0
  6
CONTINUOUS
 62
     7
100
AcDbVertex
100
AcDbPolygonMeshVertex
 10
0.0
 20
-0.7
 30
0.22
 70
    64
  0
VERTEX
  5
915
100
AcDbEntity
  8
0
  6
CONTINUOUS
 62
     7
100
AcDbVertex
100
AcDbPolygonMeshVertex
 10
0.494975
 20
-0.494975
 30
0.22
 70
    64
  0
VERTEX
  5
916
100
AcDbEntity
  8
0
  6
CONTINUOUS
 62
     7
100
AcDbVertex
100
AcDbPolygonMeshVertex
 10
0.7
 20
0.0
 30
0.44
 70
    64
  0
VERTEX
  5
917
100
AcDbEntity
  8
0
  6
CONTINUOUS
 62
     7
100
AcDbVertex
100
AcDbPolygonMeshVertex
 10
0.494975
 20
0.494975
 30
0.44
 70
    64
  0
VERTEX
  5
918
100
AcDbEntity
  8
0
  6
CONTINUOUS
 62
     7
100
AcDbVertex
100
AcDbPolygonMeshVertex
 10
0.0
 20
0.7
 30
0.44
 70
    64
  0
VERTEX
  5
919
100
AcDbEntity
  8
0
  6
CONTINUOUS
 62
     7
100
AcDbVertex
100
AcDbPolygonMeshVertex
 10
-0.494975
 20
0.494975
 30
0.44
 70
    64
  0
VERTEX
  5
91A
100
AcDbEntity
  8
0
  6
CONTINUOUS
 62
     7
100
AcDbVertex
100
AcDbPolygonMeshVertex
 10
-0.7
 20
0.0
 30
0.44
 70
    64
  0
VERTEX
  5
91B
100
AcDbEntity
  8
0
  6
CONTINUOUS
 62
     7
100
AcDbVertex
100
AcDbPolygonMeshVertex
 10
-0.494975
 20
-0.494975
 30
0.44
 70
    64
  0
VERTEX
  5
91C
100
AcDbEntity
  8
0
  6
CONTINUOUS
 62
     7
100
AcDbVertex
100
AcDbPolygonMeshVertex
 10
0.0
 20
-0.7
 30
0.44
 70
    64
  0
VERTEX
  5
91D
100
AcDbEntity
  8
0
  6
CONTINUOUS
 62
     7
100
AcDbVertex
100
AcDbPolygonMeshVertex
 10
0.494975
 20
-0.494975
 30
0.44
 70
    64
  0
SEQEND
  5
91E
100
AcDbEntity
  8
0
  6
CONTINUOUS
 62
     7
  0
POLYLINE
  5
91F
100
AcDbEntity
  8
0
  6
CONTINUOUS
 62
     7
100
AcDbPolygonMesh
 66
     1
 10
0.0
 20
0.0
 30
0.0
 70
    48
 71
     2
 72
     8
  0
VERTEX
  5
920
100
AcDbEntity
  8
0
  6
CONTINUOUS
 62
     7
100
AcDbVertex
100
AcDbPolygonMeshVertex
 10
0.7
 20
0.0
 30
0.44
 70
    64
  0
VERTEX
  5
921
100
AcDbEntity
  8
0
  6
CONTINUOUS
 62
     7
100
AcDbVertex
100
AcDbPolygonMeshVertex
 10
0.494975
 20
0.494975
 30
0.44
 70
    64
  0
VERTEX
  5
922
100
AcDbEntity
  8
0
  6
CONTINUOUS
 62
     7
100
AcDbVertex
100
AcDbPolygonMeshVertex
 10
0.0
 20
0.7
 30
0.44
 70
    64
  0
VERTEX
  5
923
100
AcDbEntity
  8
0
  6
CONTINUOUS
 62
     7
100
AcDbVertex
100
AcDbPolygonMeshVertex
 10
-0.494975
 20
0.494975
 30
0.44
 70
    64
  0
VERTEX
  5
924
100
AcDbEntity
  8
0
  6
CONTINUOUS
 62
     7
100
AcDbVertex
100
AcDbPolygonMeshVertex
 10
-0.7
 20
0.0
 30
0.44
 70
    64
  0
VERTEX
  5
925
100
AcDbEntity
  8
0
  6
CONTINUOUS
 62
     7
100
AcDbVertex
100
AcDbPolygonMeshVertex
 10
-0.494975
 20
-0.494975
 30
0.44
 70
    64
  0
VERTEX
  5
926
100
AcDbEntity
  8
0
  6
CONTINUOUS
 62
     7
100
AcDbVertex
100
AcDbPolygonMeshVertex
 10
0.0
 20
-0.7
 30
0.44
 70
    64
  0
VERTEX
  5
927
100
AcDbEntity
  8
0
  6
CONTINUOUS
 62
     7
100
AcDbVertex
100
AcDbPolygonMeshVertex
 10
0.494975
 20
-0.494975
 30
0.44
 70
    64
  0
VERTEX
  5
928
100
AcDbEntity
  8
0
  6
CONTINUOUS
 62
     7
100
AcDbVertex
100
AcDbPolygonMeshVertex
 10
0.5
 20
0.0
 30
1.0
 70
    64
  0
VERTEX
  5
929
100
AcDbEntity
  8
0
  6
CONTINUOUS
 62
     7
100
AcDbVertex
100
AcDbPolygonMeshVertex
 10
0.353553
 20
0.353553
 30
1.0
 70
    64
  0
VERTEX
  5
92A
100
AcDbEntity
  8
0
  6
CONTINUOUS
 62
     7
100
AcDbVertex
100
AcDbPolygonMeshVertex
 10
0.0
 20
0.5
 30
1.0
 70
    64
  0
VERTEX
  5
92B
100
AcDbEntity
  8
0
  6
CONTINUOUS
 62
     7
100
AcDbVertex
100
AcDbPolygonMeshVertex
 10
-0.353553
 20
0.353553
 30
1.0
 70
    64
  0
VERTEX
  5
92C
100
AcDbEntity
  8
0
  6
CONTINUOUS
 62
     7
100
AcDbVertex
100
AcDbPolygonMeshVertex
 10
-0.5
 20
0.0
 30
1.0
 70
    64
  0
VERTEX
  5
92D
100
AcDbEntity
  8
0
  6
CONTINUOUS
 62
     7
100
AcDbVertex
100
AcDbPolygonMeshVertex
 10
-0.353553
 20
-0.353553
 30
1.0
 70
    64
  0
VERTEX
  5
92E
100
AcDbEntity
  8
0
  6
CONTINUOUS
 62
     7
100
AcDbVertex
100
AcDbPolygonMeshVertex
 10
0.0
 20
-0.5
 30
1.0
 70
    64
  0
VERTEX
  5
92F
100
AcDbEntity
  8
0
  6
CONTINUOUS
 62
     7
100
AcDbVertex
100
AcDbPolygonMeshVertex
 10
0.353553
 20
-0.353553
 30
1.0
 70
    64
  0
SEQEND
  5
930
100
AcDbEntity
  8
0
  6
CONTINUOUS
 62
     7
  0
LINE
  5
931
100
AcDbEntity
  8
0
  6
CONTINUOUS
 62
     7
100
AcDbLine
 10
0.518451
 20
0.0
 30
0.974266
 11
0.645223
 21
-0.221703
 31
0.611796
210
0.9439341089019071
220
0.0
230
0.3301339092725288
  0
CIRCLE
  5
932
100
AcDbEntity
  8
0
  6
CONTINUOUS
 62
     7
100
AcDbCircle
 10
0.0
 20
0.492485
 30
0.811022
 40
0.256
210
0.9439341089019071
220
0.0
230
0.3301339092725288
  0
LINE
  5
933
100
AcDbEntity
  8
0
  6
CONTINUOUS
 62
     7
100
AcDbLine
 10
0.518451
 20
0.0
 30
0.974266
 11
0.645223
 21
0.221703
 31
0.611796
210
0.9439341089019071
220
0.0
230
0.3301339092725288
  0
LINE
  5
934
100
AcDbEntity
  8
0
  6
CONTINUOUS
 62
     7
100
AcDbLine
 10
0.645223
 20
-0.221703
 30
0.611796
 11
0.645223
 21
0.221703
 31
0.611796
210
0.9439341089019071
220
0.0
230
0.3301339092725288
  0
CIRCLE
  5
935
100
AcDbEntity
  8
0
  6
CONTINUOUS
100
AcDbCircle
 10
0.0
 20
0.0
 30
1.0
 40
0.5
  0
CIRCLE
  5
936
100
AcDbEntity
  8
0
  6
CONTINUOUS
100
AcDbCircle
 10
0.0
 20
0.0
 30
0.0
 40
0.5
  0
LINE
  5
937
100
AcDbEntity
  8
0
  6
CONTINUOUS
100
AcDbLine
 10
0.0
 20
0.5
 30
0.0
 11
0.0
 21
0.7
 31
0.22
  0
LINE
  5
938
100
AcDbEntity
  8
0
  6
CONTINUOUS
100
AcDbLine
 10
0.0
 20
0.7
 30
0.22
 11
0.0
 21
0.7
 31
0.44
  0
LINE
  5
939
100
AcDbEntity
  8
0
  6
CONTINUOUS
100
AcDbLine
 10
0.0
 20
0.7
 30
0.44
 11
0.0
 21
0.5
 31
1.0
  0
LINE
  5
93A
100
AcDbEntity
  8
0
  6
CONTINUOUS
100
AcDbLine
 10
-0.7
 20
0.0
 30
0.44
 11
-0.5
 21
0.0
 31
1.0
  0
LINE
  5
93B
100
AcDbEntity
  8
0
  6
CONTINUOUS
100
AcDbLine
 10
-0.5
 20
0.0
 30
0.0
 11
-0.7
 21
0.0
 31
0.22
  0
LINE
  5
93C
100
AcDbEntity
  8
0
  6
CONTINUOUS
100
AcDbLine
 10
-0.7
 20
0.0
 30
0.22
 11
-0.7
 21
0.0
 31
0.44
  0
LINE
  5
93D
100
AcDbEntity
  8
0
  6
CONTINUOUS
100
AcDbLine
 10
0.7
 20
0.0
 30
0.44
 11
0.5
 21
0.0
 31
1.0
  0
LINE
  5
93E
100
AcDbEntity
  8
0
  6
CONTINUOUS
100
AcDbLine
 10
0.5
 20
0.0
 30
0.0
 11
0.7
 21
0.0
 31
0.22
  0
LINE
  5
93F
100
AcDbEntity
  8
0
  6
CONTINUOUS
100
AcDbLine
 10
0.7
 20
0.0
 30
0.22
 11
0.7
 21
0.0
 31
0.44
  0
LINE
  5
940
100
AcDbEntity
  8
0
  6
CONTINUOUS
100
AcDbLine
 10
0.0
 20
-0.7
 30
0.44
 11
0.0
 21
-0.5
 31
1.0
  0
LINE
  5
941
100
AcDbEntity
  8
0
  6
CONTINUOUS
100
AcDbLine
 10
0.0
 20
-0.5
 30
0.0
 11
0.0
 21
-0.7
 31
0.22
  0
LINE
  5
942
100
AcDbEntity
  8
0
  6
CONTINUOUS
100
AcDbLine
 10
0.0
 20
-0.7
 30
0.22
 11
0.0
 21
-0.7
 31
0.44
  0
CIRCLE
  5
943
100
AcDbEntity
  8
0
  6
CONTINUOUS
100
AcDbCircle
 10
0.0
 20
0.0
 30
0.44
 40
0.7
  0
CIRCLE
  5
944
100
AcDbEntity
  8
0
  6
CONTINUOUS
100
AcDbCircle
 10
0.0
 20
0.0
 30
0.22
 40
0.7
  0
LINE
  5
945
100
AcDbEntity
  8
0
  6
CONTINUOUS
 62
     7
100
AcDbLine
 10
-0.518451
 20
0.0
 30
0.974266
 11
-0.645223
 21
0.221703
 31
0.611796
210
-0.9439341089019071
220
0.0
230
0.3301339092725288
  0
LINE
  5
946
100
AcDbEntity
  8
0
  6
CONTINUOUS
 62
     7
100
AcDbLine
 10
-0.645223
 20
-0.221703
 30
0.611796
 11
-0.645223
 21
0.221703
 31
0.611796
210
-0.9439341089019071
220
0.0
230
0.3301339092725288
  0
LINE
  5
947
100
AcDbEntity
  8
0
  6
CONTINUOUS
 62
     7
100
AcDbLine
 10
-0.518451
 20
0.0
 30
0.974266
 11
-0.645223
 21
-0.221703
 31
0.611796
210
-0.9439341089019071
220
0.0
230
0.3301339092725288
  0
CIRCLE
  5
948
100
AcDbEntity
  8
0
  6
CONTINUOUS
 62
     7
100
AcDbCircle
 10
0.0
 20
0.492485
 30
0.811022
 40
0.256
210
-0.9439341089019071
220
0.0
230
0.3301339092725288
  0
LINE
  5
949
100
AcDbEntity
  8
0
  6
CONTINUOUS
 62
     7
100
AcDbLine
 10
0.0
 20
0.518451
 30
0.974266
 11
-0.221703
 21
0.645223
 31
0.611796
210
0.0
220
0.9439341089019071
230
0.3301339092725288
  0
CIRCLE
  5
94A
100
AcDbEntity
  8
0
  6
CONTINUOUS
 62
     7
100
AcDbCircle
 10
0.0
 20
0.492485
 30
0.811022
 40
0.256
210
0.0
220
0.9439341089019071
230
0.3301339092725288
  0
LINE
  5
94B
100
AcDbEntity
  8
0
  6
CONTINUOUS
 62
     7
100
AcDbLine
 10
0.221703
 20
0.645223
 30
0.611796
 11
-0.221703
 21
0.645223
 31
0.611796
210
0.0
220
0.9439341089019071
230
0.3301339092725288
  0
LINE
  5
94C
100
AcDbEntity
  8
0
  6
CONTINUOUS
 62
     7
100
AcDbLine
 10
0.0
 20
0.518451
 30
0.974266
 11
0.221703
 21
0.645223
 31
0.611796
210
0.0
220
0.9439341089019071
230
0.3301339092725288
  0
LINE
  5
94D
100
AcDbEntity
  8
0
  6
CONTINUOUS
 62
     7
100
AcDbLine
 10
0.221703
 20
-0.645223
 30
0.611796
 11
-0.221703
 21
-0.645223
 31
0.611796
210
0.0
220
-0.9439341089019071
230
0.3301339092725288
  0
LINE
  5
94E
100
AcDbEntity
  8
0
  6
CONTINUOUS
 62
     7
100
AcDbLine
 10
0.0
 20
-0.518451
 30
0.974266
 11
0.221703
 21
-0.645223
 31
0.611796
210
0.0
220
-0.9439341089019071
230
0.3301339092725288
  0
CIRCLE
  5
94F
100
AcDbEntity
  8
0
  6
CONTINUOUS
 62
     7
100
AcDbCircle
 10
0.0
 20
0.492485
 30
0.811022
 40
0.256
210
0.0
220
-0.9439341089019071
230
0.3301339092725288
  0
LINE
  5
950
100
AcDbEntity
  8
0
  6
CONTINUOUS
 62
     7
100
AcDbLine
 10
0.0
 20
-0.518451
 30
0.974266
 11
-0.221703
 21
-0.645223
 31
0.611796
210
0.0
220
-0.9439341089019071
230
0.3301339092725288
  0
ENDBLK
  5
952
100
AcDbEntity
  8
0
 62
     2
100
AcDbBlockEnd
  0
BLOCK
  5
959
100
AcDbEntity
  8
0
100
AcDbBlockBegin
  2
ELE123V103_2
 70
     2
 10
0.0
 20
0.0
 30
0.0
  3
ELE123V103_2
  1

  0
INSERT
  5
95A
100
AcDbEntity
  8
VZ1
  6
CONTINUOUS
 62
     2
100
AcDbBlockReference
  2
VE011
 10
0.0
 20
0.0
 30
0.0
 41
355.0
 42
355.0
 43
176.0
  0
ATTDEF
  5
95B
100
AcDbEntity
  8
VZ1
  6
CONTINUOUS
 62
     2
100
AcDbText
 10
0.0
 20
0.0
 30
0.0
 40
1.0
  1
3383
 41
0.8
  7
ROMANS
100
AcDbAttributeDefinition
  3

  2
VETA
 70
     1
  0
ATTDEF
  5
95C
100
AcDbEntity
  8
VZ1
  6
CONTINUOUS
 62
     2
100
AcDbText
 10
0.0
 20
0.0
 30
0.0
 40
1.0
  1

 41
0.8
  7
ROMANS
100
AcDbAttributeDefinition
  3

  2
POS
 70
     1
  0
ATTDEF
  5
95D
100
AcDbEntity
  8
VZ1
  6
CONTINUOUS
 62
     2
100
AcDbText
 10
0.0
 20
0.0
 30
0.0
 40
1.0
  1
TCFB/4-355 H
 41
0.8
  7
ROMANS
100
AcDbAttributeDefinition
  3

  2
NAZEV
 70
     1
  0
ATTDEF
  5
95E
100
AcDbEntity
  8
VZ1
  6
CONTINUOUS
 62
     2
100
AcDbText
 10
0.0
 20
0.0
 30
0.0
 40
1.0
  1

 41
0.8
  7
ROMANS
100
AcDbAttributeDefinition
  3

  2
TYP
 70
     1
  0
ENDBLK
  5
95F
100
AcDbEntity
  8
0
100
AcDbBlockEnd
  0
BLOCK
  5
983
100
AcDbEntity
  8
0
100
AcDbBlockBegin
  2
ELE123V103_3
 70
     2
 10
0.0
 20
0.0
 30
0.0
  3
ELE123V103_3
  1

  0
CIRCLE
  5
984
100
AcDbEntity
  8
VZ1
  6
CONTINUOUS
 62
     2
100
AcDbCircle
 39
150.0
 10
0.0
 20
0.0
 30
0.0
 40
177.5
  0
ATTDEF
  5
985
100
AcDbEntity
  8
VZ1
  6
CONTINUOUS
 62
     2
100
AcDbText
 10
0.0
 20
0.0
 30
0.0
 40
1.0
  1
3383
 41
0.8
  7
ROMANS
100
AcDbAttributeDefinition
  3

  2
VETA
 70
     1
  0
ATTDEF
  5
986
100
AcDbEntity
  8
VZ1
  6
CONTINUOUS
 62
     2
100
AcDbText
 10
0.0
 20
0.0
 30
0.0
 40
1.0
  1

 41
0.8
  7
ROMANS
100
AcDbAttributeDefinition
  3

  2
POS
 70
     1
  0
ATTDEF
  5
987
100
AcDbEntity
  8
VZ1
  6
CONTINUOUS
 62
     2
100
AcDbText
 10
0.0
 20
0.0
 30
0.0
 40
1.0
  1
TCFB/4-355 H
 41
0.8
  7
ROMANS
100
AcDbAttributeDefinition
  3

  2
NAZEV
 70
     1
  0
ATTDEF
  5
988
100
AcDbEntity
  8
VZ1
  6
CONTINUOUS
 62
     2
100
AcDbText
 10
0.0
 20
0.0
 30
0.0
 40
1.0
  1

 41
0.8
  7
ROMANS
100
AcDbAttributeDefinition
  3

  2
TYP
 70
     1
  0
ENDBLK
  5
989
100
AcDbEntity
  8
0
100
AcDbBlockEnd
  0
BLOCK
  5
998
100
AcDbEntity
  8
0
100
AcDbBlockBegin
  2
ELE123V103_4
 70
     2
 10
0.0
 20
0.0
 30
0.0
  3
ELE123V103_4
  1

  0
CIRCLE
  5
999
100
AcDbEntity
  8
VZ1
  6
CONTINUOUS
 62
     2
100
AcDbCircle
 39
150.0
 10
0.0
 20
0.0
 30
0.0
 40
177.5
  0
ATTDEF
  5
99A
100
AcDbEntity
  8
VZ1
  6
CONTINUOUS
 62
     2
100
AcDbText
 10
0.0
 20
0.0
 30
0.0
 40
1.0
  1
3383
 41
0.8
  7
ROMANS
100
AcDbAttributeDefinition
  3

  2
VETA
 70
     1
  0
ATTDEF
  5
99B
100
AcDbEntity
  8
VZ1
  6
CONTINUOUS
 62
     2
100
AcDbText
 10
0.0
 20
0.0
 30
0.0
 40
1.0
  1

 41
0.8
  7
ROMANS
100
AcDbAttributeDefinition
  3

  2
POS
 70
     1
  0
ATTDEF
  5
99C
100
AcDbEntity
  8
VZ1
  6
CONTINUOUS
 62
     2
100
AcDbText
 10
0.0
 20
0.0
 30
0.0
 40
1.0
  1
TCFB/4-355 H
 41
0.8
  7
ROMANS
100
AcDbAttributeDefinition
  3

  2
NAZEV
 70
     1
  0
ATTDEF
  5
99D
100
AcDbEntity
  8
VZ1
  6
CONTINUOUS
 62
     2
100
AcDbText
 10
0.0
 20
0.0
 30
0.0
 40
1.0
  1

 41
0.8
  7
ROMANS
100
AcDbAttributeDefinition
  3

  2
TYP
 70
     1
  0
ENDBLK
  5
99E
100
AcDbEntity
  8
0
100
AcDbBlockEnd
  0
BLOCK
  5
BF2
100
AcDbEntity
  8
0
100
AcDbBlockBegin
  2
B
 70
     0
 10
0.0
 20
0.0
 30
0.0
  3
B
  1

  0
3DSOLID
  5
BF3
100
AcDbEntity
  8
VZ1
  6
CONTINUOUS
100
AcDbModelerGeometry
 70
     1
  1
noi kl n o          
  1
=0;& {n {m {rn {rn |
  1
9@=0;&r3(;r>++-6= {rn {l {rn {o |
  1
3*2/ {k {rn {j {o |
  1
-:9@)+r3(;r>++-6= {rn {rn {n {o {i {h |
  1
-:9@)+r3(;r>++-6= {rn {rn {rn {m {i {h |
  1
,7:33 {g {rn {rn {f {m |
  1
-:961:2:1+ {rn o o o o mqljgfilmjnnnlgfni o o o m |
  1
):-+:'@+:2/3>+: {rn l o n g |
  1
-:9@)+r3(;r>++-6= {rn {rn {rn {j {i {h |
  1
9><: {no {nn {nm {j {rn {nl 90-(>-; ,6183: |
  1
99><:r3(;r>++-6= {rn {nk {rn {f |
  1
9><: {nj {ni {nh {j {rn {ng 90-(>-; ,6183: |
  1
300/ {rn {nf {mo {f |
  1
<01:r,*-9><: {rn rlnfqfffffffffffffk mqiijinohghijjkgnl:ronl rnqnligiglhhmniniol:ronl n rkqooonilfnjlgjmigi:roni rnqglifofjlohlljiik:roni rnqnomnkjhngkkonk:ronk mqfmhknikioognfkg:rolo rioqooooooooooooonk n V V o n o V V V V |
  1
-:9@)+r3(;r>++-6= {rn {rn {no {f {i {rn |
  1
99><:r3(;r>++-6= {rn {mn {rn {nn |
  1
9><: {mm {rn {ml {j {rn {mk 90-(>-; ,6183: |
  1
300/ {rn {rn {mj {nn |
  1
/3>1:r,*-9><: {rn rlhkqfffffffffffffk nqjfiofjhjfgffjjng:ronl rnqnligiglhhmniniol:ronl rn kqooonilfnjlgjmigi:roni nqglifofjlohlljiik:roni nqglifofjlohlljiii:roni rkqofglglgmflkkfjlh:rolm nqooooooooooooooom o V V V V |
  1
300/ {rn {rn {mi {f |
  1
<0:;8: {mh {mo {mo {mj {mg n {nm {rn |
  1
-:9@)+r3(;r>++-6= {rn {rn {nj {nn {i {rn |
  1
99><:r3(;r>++-6= {rn {mf {rn {ni |
  1
300/ {rn {rn {lo {ni |
  1
/3>1:r,*-9><: {rn rmijqoooooooooooooi mqjfgmjhklgnfjmjoi:ronl rnqnligiglhhmniniol:ronl n rkqooonilfnjlgjmigi:roni rnqglifofjlohlljiik:roni rnqglifofjlohlljiii:roni kqofglglgmflkkfjlh:rolm rnqooooooooooooooom o V V V V |
  1
<0:;8: {ln {mj {mj {mo {mg o {nh {rn |
  1
<0:;8: {lm {mi {mi {lo {ll n {nf {rn |
  1
<0/>-r3(;r>++-6= {rn {rn {rn {mo |
  1
:;8: {lk {lj {lj {mj {li o |
  1
-:9@)+r3(;r>++-6= {rn {rn {mm {ni {i {rn |
  1
<0:;8: {lh {lo {lo {mi {ll o {ml {rn |
  1
<0/>-r3(;r>++-6= {rn {rn {rn {mj |
  1
<0/>-r3(;r>++-6= {rn {rn {rn {mi |
  1
:;8: {lg {lf {lf {lo {ko o |
  1
:/>-r3(;r>++-6= {rn {rn {rn {mg |
  1
):-+:' {rn {mg {kn |
  1
:336/,:r<*-): {rn rlhkqfffffffffffffk nqjfiofjhjfgffjjng:ronl rnqnligiglhhmniniol:ronl rn kqooonilfnjlgjmigi:roni nqglifofjlohlljiik:roni rnqnomnkjhngkkonk:ronk mqfmhknikioognfkg:rolo rioqooooooooooooonk n V V |
  1
<0/>-r3(;r>++-6= {rn {rn {rn {lo |
  1
:/>-r3(;r>++-6= {rn {rn {rn {ll |
  1
):-+:' {rn {ll {km |
  1
:336/,:r<*-): {rn rmijqoooooooooooooi mqjfgmjhklgnfjmjoi:ronl rnqnligiglhhmniniol:ronl n rkqooonilfnjlgjmigi:roni rnqglifofjlohlljiik:roni rnqnomnkjhngkkonk:ronk mqfmhknikioognfkg:rolo rioqooooooooooooonk n V V |
  1
/061+ {rn rlhkqfffffffffffffk nqjfiofjhjfgffjjng:ronl rioqoooooooooooonnk |
  1
/061+ {rn rmijqoooooooooooooi mqjfgmjhklgnfjmjoi:ronl rioqoooooooooooonnk |
  0
3DSOLID
  5
BF4
100
AcDbEntity
  8
VZ1
  6
CONTINUOUS
100
AcDbModelerGeometry
 70
     1
  1
noi km n o          
  1
=0;& {n {m {rn {rn |
  1
9@=0;&r3(;r>++-6= {rn {l {rn {o |
  1
3*2/ {k {rn {j {o |
  1
-:9@)+r3(;r>++-6= {rn {rn {n {o {i {h |
  1
-:9@)+r3(;r>++-6= {rn {rn {rn {m {i {h |
  1
,7:33 {g {rn {rn {f {m |
  1
-:961:2:1+ {rn o o o o mqljgfilmjnnnlgfni o o o m |
  1
):-+:'@+:2/3>+: {rn l o n g |
  1
-:9@)+r3(;r>++-6= {rn {rn {rn {j {i {h |
  1
9><: {no {nn {nm {j {rn {nl -:):-,:; ,6183: |
  1
99><:r3(;r>++-6= {rn {nk {rn {f |
  1
9><: {nj {ni {nh {j {rn {nl -:):-,:; ,6183: |
  1
300/ {rn {rn {ng {f |
  1
/3>1:r,*-9><: {rn rngj nqlilkmojjmihlloon:ronl rnqnligiglhhmniniol:ronl rnqglifofjlohlljiin:roni rnqmmkioiljlgmmlhh:roni n rnqmmkioiljlgmmlhhl:roni rn rnqmmkioiljlgmmlhhl:roni o V V V V |
  1
-:9@)+r3(;r>++-6= {rn {rn {no {f {i {rn |
  1
99><:r3(;r>++-6= {rn {nf {rn {nn |
  1
9><: {mo {rn {mn {j {rn {mm 90-(>-; ,6183: |
  1
300/ {rn {rn {ml {nn |
  1
<0:;8: {mk {ng {ng {mj {mi o {nm {rn |
  1
-:9@)+r3(;r>++-6= {rn {rn {nj {nn {i {rn |
  1
99><:r3(;r>++-6= {rn {mh {rn {ni |
  1
300/ {rn {mg {mj {ni |
  1
+0-*,r,*-9><: {rn rngj nqlilkmojjmihlloon:ronl rnqnligiglhhmniniol:ronl rn nqmmkioiljlgmmlhhl:roni rnqglifofjlohlljijf:roni nlj ho rnqglifofjlohlljiin:roni rnqmmkioiljlgmmlhh:roni n o V V V V |
  1
<0:;8: {mf {ml {ml {lo {ln o {nh {rn |
  1
<0/>-r3(;r>++-6= {rn {rn {rn {ng |
  1
<0:;8: {lm {mj {mj {ng {mi n {mn {rn |
  1
:;8: {ll {lk {lk {mj {lj o |
  1
-:9@)+r3(;r>++-6= {rn {rn {mo {ni {i {rn |
  1
300/ {rn {rn {lo {ni |
  1
<0/>-r3(;r>++-6= {rn {rn {rn {ml |
  1
<0:;8: {li {lo {lo {ml {ln n {mg {rn |
  1
:;8: {lh {lg {lg {lo {lf o |
  1
<0/>-r3(;r>++-6= {rn {rn {rn {mj |
  1
:/>-r3(;r>++-6= {rn {rn {rn {mi |
  1
):-+:' {rn {mi {ko |
  1
:336/,:r<*-): {rn rngkqfffffffffffffh nljqoooooooooooonk o nqglifofjlohlljiin:roni nqmmkioiljlgmmlhh:roni rn rhoqooooooooooooonk jqonfjlohfhfjinknj:ronj rnqmgjgliihnjnlkfin:ronk n V V |
  1
<0/>-r3(;r>++-6= {rn {rn {rn {lo |
  1
:/>-r3(;r>++-6= {rn {rn {rn {ln |
  1
):-+:' {rn {ln {kn |
  1
:336/,:r<*-): {rn rngkqfffffffffffffh rnlkqffffffffffffgi rnqnligiglhhmniniol:ronl nqglifofjlohlljiin:roni nqmmkioiljlgmmlhh:roni rn rhoqooooooooooooonk jqonfjlohfhfjinknj:ronj rnqmgjgliihnjnlkfin:ronk n V V |
  1
/061+ {rn rnnkqfffffffffffffk nljqoooooooooooojh nqnligiglhhmniniol:ronl |
  1
/061+ {rn rnnkqfffffffffffffh rnlkqffffffffffffkl o |
  0
3DSOLID
  5
BF5
100
AcDbEntity
  8
VZ1
  6
CONTINUOUS
100
AcDbModelerGeometry
 70
     1
  1
noi km n o          
  1
=0;& {n {m {rn {rn |
  1
9@=0;&r3(;r>++-6= {rn {l {rn {o |
  1
3*2/ {k {rn {j {o |
  1
-:9@)+r3(;r>++-6= {rn {rn {n {o {i {h |
  1
-:9@)+r3(;r>++-6= {rn {rn {rn {m {i {h |
  1
,7:33 {g {rn {rn {f {m |
  1
-:961:2:1+ {rn o o o o mqljgfilmjnnnlgfni o o o m |
  1
):-+:'@+:2/3>+: {rn l o n g |
  1
-:9@)+r3(;r>++-6= {rn {rn {rn {j {i {h |
  1
9><: {no {nn {nm {j {rn {nl -:):-,:; ,6183: |
  1
99><:r3(;r>++-6= {rn {nk {rn {f |
  1
9><: {nj {ni {nh {j {rn {nl -:):-,:; ,6183: |
  1
300/ {rn {rn {ng {f |
  1
/3>1:r,*-9><: {rn rngj nqlilkmojjmihlloon:ronl o nqglifofjlohlljiin:roni rmqgijhggiikflhnmni:rolm rn nqmmkioiljlgmmlhhl:roni n o o V V V V |
  1
-:9@)+r3(;r>++-6= {rn {rn {no {f {i {rn |
  1
99><:r3(;r>++-6= {rn {nf {rn {nn |
  1
9><: {mo {rn {mn {j {rn {mm 90-(>-; ,6183: |
  1
300/ {rn {rn {ml {nn |
  1
<0:;8: {mk {ng {ng {mj {mi o {nm {rn |
  1
-:9@)+r3(;r>++-6= {rn {rn {nj {nn {i {rn |
  1
99><:r3(;r>++-6= {rn {mh {rn {ni |
  1
300/ {rn {mg {mj {ni |
  1
+0-*,r,*-9><: {rn rngj nqlilkmojjmihlloon:ronl o rn nqmmkioiljlgmmlhhl:roni rnqglifofjlohlljijf:roni nlj ho nqglifofjlohlljiin:roni rmqgijhggiikflhnmni:rolm rn o V V V V |
  1
<0:;8: {mf {ml {ml {lo {ln o {nh {rn |
  1
<0/>-r3(;r>++-6= {rn {rn {rn {ng |
  1
<0:;8: {lm {mj {mj {ng {mi n {mn {rn |
  1
:;8: {ll {lk {lk {mj {lj o |
  1
-:9@)+r3(;r>++-6= {rn {rn {mo {ni {i {rn |
  1
300/ {rn {rn {lo {ni |
  1
<0/>-r3(;r>++-6= {rn {rn {rn {ml |
  1
<0:;8: {li {lo {lo {ml {ln n {mg {rn |
  1
:;8: {lh {lg {lg {lo {lf o |
  1
<0/>-r3(;r>++-6= {rn {rn {rn {mj |
  1
:/>-r3(;r>++-6= {rn {rn {rn {mi |
  1
):-+:' {rn {mi {ko |
  1
:336/,:r<*-): {rn rngkqfffffffffffffh rnlkqffffffffffffgi o rnqglifofjlohlljiin:roni mqgijhggiikflhnmni:rolm n rhoqooooooooooooonk jqonfjlohfhfjinknj:ronj rnqmgjgliihnjnlkfin:ronk n V V |
  1
<0/>-r3(;r>++-6= {rn {rn {rn {lo |
  1
:/>-r3(;r>++-6= {rn {rn {rn {ln |
  1
):-+:' {rn {ln {kn |
  1
:336/,:r<*-): {rn rngkqfffffffffffffh nljqoooooooooooonk o rnqglifofjlohlljiin:roni mqgijhggiikflhnmni:rolm n rhoqooooooooooooonk jqonfjlohfhfjinknj:ronj rnqmgjgliihnjnlkfin:ronk n V V |
  1
/061+ {rn rnnkqfffffffffffffh rnljqoooooooooooolk o |
  1
/061+ {rn rnnkqfffffffffffffn nlkqffffffffffffjj o |
  0
3DSOLID
  5
BF6
100
AcDbEntity
  8
VZ1
  6
CONTINUOUS
100
AcDbModelerGeometry
 70
     1
  1
noi kl n o          
  1
=0;& {n {m {rn {rn |
  1
9@=0;&r3(;r>++-6= {rn {l {rn {o |
  1
3*2/ {k {rn {j {o |
  1
-:9@)+r3(;r>++-6= {rn {rn {n {o {i {h |
  1
-:9@)+r3(;r>++-6= {rn {rn {rn {m {i {h |
  1
,7:33 {g {rn {rn {f {m |
  1
-:961:2:1+ {rn o o o o mqljgfilmjnnnlgfni o o o m |
  1
):-+:'@+:2/3>+: {rn l o n g |
  1
-:9@)+r3(;r>++-6= {rn {rn {rn {j {i {h |
  1
9><: {no {nn {nm {j {rn {nl 90-(>-; ,6183: |
  1
99><:r3(;r>++-6= {rn {nk {rn {f |
  1
9><: {nj {ni {nh {j {rn {ng 90-(>-; ,6183: |
  1
300/ {rn {nf {mo {f |
  1
<01:r,*-9><: {rn rhmqj gqghglfioijmnmmljn:ronj rnqnligiglhhmniniol:ronl rn nqmmkioiljlgmmlhhl:roni rnqglifofjlohlljijf:roni nqkifjmhimkjgigjmh:ronk rnqhffjfmgiingijikf:rolo rgo n V V o n o V V V V |
  1
-:9@)+r3(;r>++-6= {rn {rn {no {f {i {rn |
  1
99><:r3(;r>++-6= {rn {mn {rn {nn |
  1
9><: {mm {rn {ml {j {rn {mk 90-(>-; ,6183: |
  1
300/ {rn {rn {mj {nn |
  1
/3>1:r,*-9><: {rn rho gqjhmmkkkhihjiikog:ronj rnqnligiglhhmniniol:ronl n rnqmmkioiljlgmmlhhl:roni nqglifofjlohlljijf:roni rnqglifofjlohlljijf:roni mqmkfkfnogmhllmoim:rolm n o V V V V |
  1
300/ {rn {rn {mi {f |
  1
<0:;8: {mh {mo {mo {mj {mg n {nm {rn |
  1
-:9@)+r3(;r>++-6= {rn {rn {nj {nn {i {rn |
  1
99><:r3(;r>++-6= {rn {mf {rn {ni |
  1
300/ {rn {rn {lo {ni |
  1
/3>1:r,*-9><: {rn rhj fqngkjkhijliihgmfk:ronj rnqnligiglhhmniniol:ronl rn nqmmkioiljlgmmlhhl:roni rnqglifofjlohlljijf:roni nqglifofjlohlljijf:roni rmqmkfkfnogmhllmoim:rolm rn o V V V V |
  1
<0:;8: {ln {mj {mj {mo {mg o {nh {rn |
  1
<0:;8: {lm {mi {mi {lo {ll n {nf {rn |
  1
<0/>-r3(;r>++-6= {rn {rn {rn {mo |
  1
:;8: {lk {lj {lj {mj {li o |
  1
-:9@)+r3(;r>++-6= {rn {rn {mm {ni {i {rn |
  1
<0:;8: {lh {lo {lo {mi {ll o {ml {rn |
  1
<0/>-r3(;r>++-6= {rn {rn {rn {mj |
  1
<0/>-r3(;r>++-6= {rn {rn {rn {mi |
  1
:;8: {lg {lf {lf {lo {ko o |
  1
:/>-r3(;r>++-6= {rn {rn {rn {mg |
  1
):-+:' {rn {mg {kn |
  1
:336/,:r<*-): {rn rho gqjhmmkkkhihjiikog:ronj rnqnligiglhhmniniol:ronl n rnqmmkioiljlgmmlhhl:roni nqglifofjlohlljijf:roni nqkifjmhimkjgigjmh:ronk rnqhffjfmgiingijikf:rolo rgo n V V |
  1
<0/>-r3(;r>++-6= {rn {rn {rn {lo |
  1
:/>-r3(;r>++-6= {rn {rn {rn {ll |
  1
):-+:' {rn {ll {km |
  1
:336/,:r<*-): {rn rhj fqngkjkhijliihgmfk:ronj rnqnligiglhhmniniol:ronl rn nqmmkioiljlgmmlhhl:roni rnqglifofjlohlljijf:roni nqkifjmhimkjgigjmh:ronk rnqhffjfmgiingijikf:rolo rgo n V V |
  1
/061+ {rn rifqfffffffffffffhm gqjhmmkkkhihjiilhh:ronj rgoqooooooooooooojh |
  1
/061+ {rn rhkqfffffffffffffhm fqngkjkhijliihgmil:ronj rgoqooooooooooooojh |
  0
3DSOLID
  5
BF7
100
AcDbEntity
  8
VZ1
  6
CONTINUOUS
100
AcDbModelerGeometry
 70
     1
  1
noi kl n o          
  1
=0;& {n {m {rn {rn |
  1
9@=0;&r3(;r>++-6= {rn {l {rn {o |
  1
3*2/ {k {rn {j {o |
  1
-:9@)+r3(;r>++-6= {rn {rn {n {o {i {h |
  1
-:9@)+r3(;r>++-6= {rn {rn {rn {m {i {h |
  1
,7:33 {g {rn {rn {f {m |
  1
-:961:2:1+ {rn o o o o mqljgfilmjnnnlgfni o o o m |
  1
):-+:'@+:2/3>+: {rn l o n g |
  1
-:9@)+r3(;r>++-6= {rn {rn {rn {j {i {h |
  1
9><: {no {nn {nm {j {rn {nl 90-(>-; ,6183: |
  1
99><:r3(;r>++-6= {rn {nk {rn {f |
  1
9><: {nj {ni {nh {j {rn {ng 90-(>-; ,6183: |
  1
300/ {rn {nf {mo {f |
  1
<01:r,*-9><: {rn rjkqfffffffffffffjh nqmokmmnhmiihilfn:ronl o rn jqnnolgifkoonokmjn:roni rnqglifofjlohlljiik:roni nqmgjgliihnjnlkfii:ronk rjqjngfkgmgkonglok:rolo rhoqooooooooooooonk n V V o n o V V V V |
  1
-:9@)+r3(;r>++-6= {rn {rn {no {f {i {rn |
  1
99><:r3(;r>++-6= {rn {mn {rn {nn |
  1
9><: {mm {rn {ml {j {rn {mk 90-(>-; ,6183: |
  1
300/ {rn {rn {mj {nn |
  1
/3>1:r,*-9><: {rn rnqkmnogjkhnjmomook:ronk nqhkomhomfhhkgloil:rolo o n rjqnnolgifkoonokmjn:roni nqglifofjlohlljiik:roni rnqglifofjlohlljiik:roni gqknmkiifokhhmliof:rolm nqooooooooooooooom o V V V V |
  1
300/ {rn {rn {mi {f |
  1
<0:;8: {mh {mo {mo {mj {mg n {nm {rn |
  1
-:9@)+r3(;r>++-6= {rn {rn {nj {nn {i {rn |
  1
99><:r3(;r>++-6= {rn {mf {rn {ni |
  1
300/ {rn {rn {lo {ni |
  1
/3>1:r,*-9><: {rn rnnoqooooooooooooon rnqoomninihgmfjifgg:ronl o rn jqnnolgifkoonokmjn:roni rnqglifofjlohlljiik:roni nqglifofjlohlljiik:roni rgqknmkiifokhhmliof:rolm rnqooooooooooooooom o V V V V |
  1
<0:;8: {ln {mj {mj {mo {mg o {nh {rn |
  1
<0:;8: {lm {mi {mi {lo {ll n {nf {rn |
  1
<0/>-r3(;r>++-6= {rn {rn {rn {mo |
  1
:;8: {lk {lj {lj {mj {li o |
  1
-:9@)+r3(;r>++-6= {rn {rn {mm {ni {i {rn |
  1
<0:;8: {lh {lo {lo {mi {ll o {ml {rn |
  1
<0/>-r3(;r>++-6= {rn {rn {rn {mj |
  1
<0/>-r3(;r>++-6= {rn {rn {rn {mi |
  1
:;8: {lg {lf {lf {lo {ko o |
  1
:/>-r3(;r>++-6= {rn {rn {rn {mg |
  1
):-+:' {rn {mg {kn |
  1
:336/,:r<*-): {rn rnqkmnogjkhnjmomook:ronk nqhkomhomfhhkgloil:rolo o n rjqnnolgifkoonokmjn:roni nqglifofjlohlljiik:roni nqmgjgliihnjnlkfii:ronk rjqjngfkgmgkonglok:rolo rhoqooooooooooooonk n V V |
  1
<0/>-r3(;r>++-6= {rn {rn {rn {lo |
  1
:/>-r3(;r>++-6= {rn {rn {rn {ll |
  1
):-+:' {rn {ll {km |
  1
:336/,:r<*-): {rn rnnoqooooooooooooon rnqoomninihgmfjifgg:ronl o rn jqnnolgifkoonokmjn:roni rnqglifofjlohlljiik:roni nqmgjgliihnjnlkfii:ronk rjqjngfkgmgkonglok:rolo rhoqooooooooooooonk n V V |
  1
/061+ {rn rnqkmnogjkhnjmomook:ronk nqhkomhomfhhkgloil:rolo rho |
  1
/061+ {rn rnnoqooooooooooooon rnqoomninihgmfjifgg:ronl rho |
  0
3DSOLID
  5
BF8
100
AcDbEntity
  8
VZ1
  6
CONTINUOUS
100
AcDbModelerGeometry
 70
     1
  1
noi kl n o          
  1
=0;& {n {m {rn {rn |
  1
9@=0;&r3(;r>++-6= {rn {l {rn {o |
  1
3*2/ {k {rn {j {o |
  1
-:9@)+r3(;r>++-6= {rn {rn {n {o {i {h |
  1
-:9@)+r3(;r>++-6= {rn {rn {rn {m {i {h |
  1
,7:33 {g {rn {rn {f {m |
  1
-:961:2:1+ {rn o o o o mqljgfilmjnnnlgfni o o o m |
  1
):-+:'@+:2/3>+: {rn l o n g |
  1
-:9@)+r3(;r>++-6= {rn {rn {rn {j {i {h |
  1
9><: {no {nn {nm {j {rn {nl 90-(>-; ,6183: |
  1
99><:r3(;r>++-6= {rn {nk {rn {f |
  1
9><: {nj {ni {nh {j {rn {ng 90-(>-; ,6183: |
  1
300/ {rn {nf {mo {f |
  1
<01:r,*-9><: {rn rnnmqkffffffffffffi nqmhkilijfmomnnhhh:ronl rnqnligiglhhmniniol:ronl rn jqnnolgifkoonokmjn:roni rnqglifofjlohlljiik:roni mqlghfgmlgffjliljh:ronk rnqognmfkhkjfhilmgi:romf rnloqoooooooooooool n V V o n o V V V V |
  1
-:9@)+r3(;r>++-6= {rn {rn {no {f {i {rn |
  1
99><:r3(;r>++-6= {rn {mn {rn {nn |
  1
9><: {mm {rn {ml {j {rn {mk 90-(>-; ,6183: |
  1
300/ {rn {rn {mj {nn |
  1
/3>1:r,*-9><: {rn rnnoqooooooooooooon rnqoomninihgmfjifgg:ronl rnqnligiglhhmniniol:ronl n rjqnnolgifkoonokmjn:roni nqglifofjlohlljiik:roni rnqglifofjlohlljiik:roni gqknmkiifokhhmliof:rolm nqooooooooooooooom o V V V V |
  1
300/ {rn {rn {mi {f |
  1
<0:;8: {mh {mo {mo {mj {mg n {nm {rn |
  1
-:9@)+r3(;r>++-6= {rn {rn {nj {nn {i {rn |
  1
99><:r3(;r>++-6= {rn {mf {rn {ni |
  1
300/ {rn {rn {lo {ni |
  1
/3>1:r,*-9><: {rn rnnkqffffffffffffff nqmhhifgnohfojhllh:ronl rnqnligiglhhmniniol:ronl rn jqnnolgifkoonokmjn:roni rnqglifofjlohlljiik:roni nqglifofjlohlljiik:roni rgqknmkiifokhhmliof:rolm rnqooooooooooooooom o V V V V |
  1
<0:;8: {ln {mj {mj {mo {mg o {nh {rn |
  1
<0:;8: {lm {mi {mi {lo {ll n {nf {rn |
  1
<0/>-r3(;r>++-6= {rn {rn {rn {mo |
  1
:;8: {lk {lj {lj {mj {li o |
  1
-:9@)+r3(;r>++-6= {rn {rn {mm {ni {i {rn |
  1
<0:;8: {lh {lo {lo {mi {ll o {ml {rn |
  1
<0/>-r3(;r>++-6= {rn {rn {rn {mj |
  1
<0/>-r3(;r>++-6= {rn {rn {rn {mi |
  1
:;8: {lg {lf {lf {lo {ko o |
  1
:/>-r3(;r>++-6= {rn {rn {rn {mg |
  1
):-+:' {rn {mg {kn |
  1
:336/,:r<*-): {rn rnnoqooooooooooooon rnqoomninihgmfjifgg:ronl rnqnligiglhhmniniol:ronl n rjqnnolgifkoonokmjn:roni nqglifofjlohlljiik:roni mqlghfgmlgffjliljh:ronk rnqognmfkhkjfhilmgi:romf rnloqoooooooooooool n V V |
  1
<0/>-r3(;r>++-6= {rn {rn {rn {lo |
  1
:/>-r3(;r>++-6= {rn {rn {rn {ll |
  1
):-+:' {rn {ll {km |
  1
:336/,:r<*-): {rn rnnkqffffffffffffff nqmhhifgnohfojhllh:ronl rnqnligiglhhmniniol:ronl rn jqnnolgifkoonokmjn:roni rnqglifofjlohlljiik:roni mqlghfgmlgffjliljh:ronk rnqognmfkhkjfhilmgi:romf rnloqoooooooooooool n V V |
  1
/061+ {rn rnofqffffffffffffff nqmhnjhjohinliimng:ronl rnloqoooooooooooonn |
  1
/061+ {rn rnnkqffffffffffffff nqmhhifgnohfojhllh:ronl rnloqoooooooooooonn |
  0
POINT
  5
BF9
100
AcDbEntity
  8
VZ1
  6
CONTINUOUS
100
AcDbPoint
 10
0.0
 20
0.0
 30
0.0
210
-1.0
220
0.0000000000000001
230
-0.0000000000000002
 50
90.0
  0
3DSOLID
  5
BFA
100
AcDbEntity
  8
VZ1
  6
CONTINUOUS
100
AcDbModelerGeometry
 70
     1
  1
noi kl n o          
  1
=0;& {n {m {rn {rn |
  1
9@=0;&r3(;r>++-6= {rn {l {rn {o |
  1
3*2/ {k {rn {j {o |
  1
-:9@)+r3(;r>++-6= {rn {rn {n {o {i {h |
  1
-:9@)+r3(;r>++-6= {rn {rn {rn {m {i {h |
  1
,7:33 {g {rn {rn {f {m |
  1
-:961:2:1+ {rn o o o o mqljgfilmjnnnlgfni o o o m |
  1
):-+:'@+:2/3>+: {rn l o n g |
  1
-:9@)+r3(;r>++-6= {rn {rn {rn {j {i {h |
  1
9><: {no {nn {nm {j {rn {nl 90-(>-; ,6183: |
  1
99><:r3(;r>++-6= {rn {nk {rn {f |
  1
9><: {nj {ni {nh {j {rn {ng 90-(>-; ,6183: |
  1
300/ {rn {nf {mo {f |
  1
<01:r,*-9><: {rn rmjhqj nqkjmmokjnllmjkmmk:ronl rnqnligiglhhmniniol:ronl rn jqnnolgifkoonokmjn:roni rnqglifofjlohlljiik:roni mqlghfgmlgffjliljh:ronk rnqognmfkhkjfhilmgi:romf rnloqoooooooooooool n V V o n o V V V V |
  1
-:9@)+r3(;r>++-6= {rn {rn {no {f {i {rn |
  1
99><:r3(;r>++-6= {rn {mn {rn {nn |
  1
9><: {mm {rn {ml {j {rn {mk 90-(>-; ,6183: |
  1
300/ {rn {rn {mj {nn |
  1
/3>1:r,*-9><: {rn rmjj nqkkfnkmffhkkogiij:ronl rnqnligiglhhmniniol:ronl n rjqnnolgifkoonokmjn:roni nqglifofjlohlljiik:roni rnqglifofjlohlljiik:roni gqknmkiifokhhmliof:rolm nqooooooooooooooom o V V V V |
  1
300/ {rn {rn {mi {f |
  1
<0:;8: {mh {mo {mo {mj {mg n {nm {rn |
  1
-:9@)+r3(;r>++-6= {rn {rn {nj {nn {i {rn |
  1
99><:r3(;r>++-6= {rn {mf {rn {ni |
  1
300/ {rn {rn {lo {ni |
  1
/3>1:r,*-9><: {rn rmio nqkjjmiiomfmoffhgk:ronl rnqnligiglhhmniniol:ronl rn jqnnolgifkoonokmjn:roni rnqglifofjlohlljiik:roni nqglifofjlohlljiik:roni rgqknmkiifokhhmliof:rolm rnqooooooooooooooom o V V V V |
  1
<0:;8: {ln {mj {mj {mo {mg o {nh {rn |
  1
<0:;8: {lm {mi {mi {lo {ll n {nf {rn |
  1
<0/>-r3(;r>++-6= {rn {rn {rn {mo |
  1
:;8: {lk {lj {lj {mj {li o |
  1
-:9@)+r3(;r>++-6= {rn {rn {mm {ni {i {rn |
  1
<0:;8: {lh {lo {lo {mi {ll o {ml {rn |
  1
<0/>-r3(;r>++-6= {rn {rn {rn {mj |
  1
<0/>-r3(;r>++-6= {rn {rn {rn {mi |
  1
:;8: {lg {lf {lf {lo {ko o |
  1
:/>-r3(;r>++-6= {rn {rn {rn {mg |
  1
):-+:' {rn {mg {kn |
  1
:336/,:r<*-): {rn rmjj nqkkfnkmffhkkogiij:ronl rnqnligiglhhmniniol:ronl n rjqnnolgifkoonokmjn:roni nqglifofjlohlljiik:roni mqlghfgmlgffjliljh:ronk rnqognmfkhkjfhilmgi:romf rnloqoooooooooooool n V V |
  1
<0/>-r3(;r>++-6= {rn {rn {rn {lo |
  1
:/>-r3(;r>++-6= {rn {rn {rn {ll |
  1
):-+:' {rn {ll {km |
  1
:336/,:r<*-): {rn rmio nqkjjmiiomfmoffhgk:ronl rnqnligiglhhmniniol:ronl rn jqnnolgifkoonokmjn:roni rnqglifofjlohlljiik:roni mqlghfgmlgffjliljh:ronk rnqognmfkhkjfhilmgi:romf rnloqoooooooooooool n V V |
  1
/061+ {rn rmjjqoooooooooooooi nqkkfnkmffhkkogiij:ronl rnloqoooooooooooonn |
  1
/061+ {rn rmjfqfffffffffffffk lqnglfhijnfflgngom:ronk rnloqoooooooooooonn |
  0
3DSOLID
  5
BFB
100
AcDbEntity
  8
VZ1
  6
CONTINUOUS
100
AcDbModelerGeometry
 70
     1
  1
noi kl n o          
  1
=0;& {n {m {rn {rn |
  1
9@=0;&r3(;r>++-6= {rn {l {rn {o |
  1
3*2/ {k {rn {j {o |
  1
-:9@)+r3(;r>++-6= {rn {rn {n {o {i {h |
  1
-:9@)+r3(;r>++-6= {rn {rn {rn {m {i {h |
  1
,7:33 {g {rn {rn {f {m |
  1
-:961:2:1+ {rn o o o o mqljgfilmjnnnlgfni o o o m |
  1
):-+:'@+:2/3>+: {rn l o n g |
  1
-:9@)+r3(;r>++-6= {rn {rn {rn {j {i {h |
  1
9><: {no {nn {nm {j {rn {nl 90-(>-; ,6183: |
  1
99><:r3(;r>++-6= {rn {nk {rn {f |
  1
9><: {nj {ni {nh {j {rn {ng 90-(>-; ,6183: |
  1
300/ {rn {nf {mo {f |
  1
<01:r,*-9><: {rn rngkqfffffffffffffn rnlkqlhkfffffffffil njkqffffffffffffgf o o n rho gqjhmmkkkhihjiikog:ronj o n V V o n o V V V V |
  1
-:9@)+r3(;r>++-6= {rn {rn {no {f {i {rn |
  1
99><:r3(;r>++-6= {rn {mn {rn {nn |
  1
9><: {mm {rn {ml {j {rn {mk 90-(>-; ,6183: |
  1
300/ {rn {rn {mj {nn |
  1
/3>1:r,*-9><: {rn rngkqfffffffffffffn rnlkqlhkfffffffffil rnqnligiglhhmniniol:ronl o o rn n rnqmmkioiljlgmmlhhl:roni o o V V V V |
  1
300/ {rn {rn {mi {f |
  1
<0:;8: {mh {mo {mo {mj {mg n {nm {rn |
  1
-:9@)+r3(;r>++-6= {rn {rn {nj {nn {i {rn |
  1
99><:r3(;r>++-6= {rn {mf {rn {ni |
  1
300/ {rn {rn {lo {ni |
  1
/3>1:r,*-9><: {rn rngkqfffffffffffffn rnlkqlhkfffffffffil lofqffffffffffffgf o o n rn nqmmkioiljlgmmlhhl:roni o o V V V V |
  1
<0:;8: {ln {mj {mj {mo {mg o {nh {rn |
  1
<0:;8: {lm {mi {mi {lo {ll n {nf {rn |
  1
<0/>-r3(;r>++-6= {rn {rn {rn {mo |
  1
:;8: {lk {lj {lj {mj {li o |
  1
-:9@)+r3(;r>++-6= {rn {rn {mm {ni {i {rn |
  1
<0:;8: {lh {lo {lo {mi {ll o {ml {rn |
  1
<0/>-r3(;r>++-6= {rn {rn {rn {mj |
  1
<0/>-r3(;r>++-6= {rn {rn {rn {mi |
  1
:;8: {lg {lf {lf {lo {ko o |
  1
:/>-r3(;r>++-6= {rn {rn {rn {mg |
  1
):-+:' {rn {mg {kn |
  1
:336/,:r<*-): {rn rngkqfffffffffffffn rnlkqlhkfffffffffil rnqnligiglhhmniniol:ronl o o rn rho gqjhmmkkkhihjiikog:ronj o n V V |
  1
<0/>-r3(;r>++-6= {rn {rn {rn {lo |
  1
:/>-r3(;r>++-6= {rn {rn {rn {ll |
  1
):-+:' {rn {ll {km |
  1
:336/,:r<*-): {rn rngkqfffffffffffffn rnlkqlhkfffffffffil lofqffffffffffffgf o o n rho gqjhmmkkkhihjiikog:ronj o n V V |
  1
/061+ {rn rmjkqfffffffffffffn rnlkqlhkfffffffffil rnqnligiglhhmniniol:ronl |
  1
/061+ {rn rmjkqfffffffffffffn rnlkqlhkfffffffffil lofqffffffffffffgf |
  0
3DSOLID
  5
BFC
100
AcDbEntity
  8
VZ1
  6
CONTINUOUS
100
AcDbModelerGeometry
 70
     1
  1
noi kl n o          
  1
=0;& {n {m {rn {rn |
  1
9@=0;&r3(;r>++-6= {rn {l {rn {o |
  1
3*2/ {k {rn {j {o |
  1
-:9@)+r3(;r>++-6= {rn {rn {n {o {i {h |
  1
-:9@)+r3(;r>++-6= {rn {rn {rn {m {i {h |
  1
,7:33 {g {rn {rn {f {m |
  1
-:961:2:1+ {rn o o o o mqljgfilmjnnnlgfni o o o m |
  1
):-+:'@+:2/3>+: {rn l o n g |
  1
-:9@)+r3(;r>++-6= {rn {rn {rn {j {i {h |
  1
9><: {no {nn {nm {j {rn {nl 90-(>-; ,6183: |
  1
99><:r3(;r>++-6= {rn {nk {rn {f |
  1
9><: {nj {ni {nh {j {rn {ng 90-(>-; ,6183: |
  1
300/ {rn {nf {mo {f |
  1
<01:r,*-9><: {rn rngjqoooooooooooool rnlkqffffffffffffgi mkhqjooooooooooonn o o n rgoqooooooooooooomg kqnhhnmhlflfhgljmi:ronk o n V V o n o V V V V |
  1
-:9@)+r3(;r>++-6= {rn {rn {no {f {i {rn |
  1
99><:r3(;r>++-6= {rn {mn {rn {nn |
  1
9><: {mm {rn {ml {j {rn {mk 90-(>-; ,6183: |
  1
300/ {rn {rn {mj {nn |
  1
/3>1:r,*-9><: {rn rngjqoooooooooooool rnlkqffffffffffffgi mkjqoooooooooooonn o o rn n rjqnnolgifkoonokmjn:roni o o V V V V |
  1
300/ {rn {rn {mi {f |
  1
<0:;8: {mh {mo {mo {mj {mg n {nm {rn |
  1
-:9@)+r3(;r>++-6= {rn {rn {nj {nn {i {rn |
  1
99><:r3(;r>++-6= {rn {mf {rn {ni |
  1
300/ {rn {rn {lo {ni |
  1
/3>1:r,*-9><: {rn rngjqoooooooooooool rnlkqffffffffffffgi mjoqoooooooooooonn o o n rn jqnnolgifkoonokmjn:roni o o V V V V |
  1
<0:;8: {ln {mj {mj {mo {mg o {nh {rn |
  1
<0:;8: {lm {mi {mi {lo {ll n {nf {rn |
  1
<0/>-r3(;r>++-6= {rn {rn {rn {mo |
  1
:;8: {lk {lj {lj {mj {li o |
  1
-:9@)+r3(;r>++-6= {rn {rn {mm {ni {i {rn |
  1
<0:;8: {lh {lo {lo {mi {ll o {ml {rn |
  1
<0/>-r3(;r>++-6= {rn {rn {rn {mj |
  1
<0/>-r3(;r>++-6= {rn {rn {rn {mi |
  1
:;8: {lg {lf {lf {lo {ko o |
  1
:/>-r3(;r>++-6= {rn {rn {rn {mg |
  1
):-+:' {rn {mg {kn |
  1
:336/,:r<*-): {rn rngjqoooooooooooool rnlkqffffffffffffgi mkjqoooooooooooonn o o rn rgoqooooooooooooomg kqnhhnmhlflfhgljmi:ronk o n V V |
  1
<0/>-r3(;r>++-6= {rn {rn {rn {lo |
  1
:/>-r3(;r>++-6= {rn {rn {rn {ll |
  1
):-+:' {rn {ll {km |
  1
:336/,:r<*-): {rn rngjqoooooooooooool rnlkqffffffffffffgi mjoqoooooooooooonn o o n rgoqooooooooooooomg kqnhhnmhlflfhgljmi:ronk o n V V |
  1
/061+ {rn rmijqoooooooooooooi rnlkqffffffffffffhk mkjqoooooooooooonn |
  1
/061+ {rn rmijqoooooooooooooi rnlkqffffffffffffhk mjoqoooooooooooonn |
  0
ENDBLK
  5
BFD
100
AcDbEntity
  8
0
100
AcDbBlockEnd
  0
BLOCK
  5
11B9
100
AcDbEntity
  8
0
100
AcDbBlockBegin
  2
A
 70
     0
 10
0.0
 20
0.0
 30
0.0
  3
A
  1

  0
CIRCLE
  5
11BA
100
AcDbEntity
  8
VZ1
  6
CONTINUOUS
100
AcDbCircle
 39
4.796136
 10
0.0
 20
0.0
 30
-4.796136
 40
127.896962
210
1.0
220
0.0
230
-0.0000000000000002
  0
CIRCLE
  5
11BB
100
AcDbEntity
  8
VZ1
  6
CONTINUOUS
100
AcDbCircle
 39
9.592272
 10
0.0
 20
0.0
 30
-9.592272
 40
79.935601
210
1.0
220
0.0
230
-0.0000000000000002
  0
POINT
  5
11BC
100
AcDbEntity
  8
VZ1
  6
CONTINUOUS
100
AcDbPoint
 10
0.0
 20
0.0
 30
0.0
210
1.0
220
0.0
230
-0.0000000000000002
 50
90.0
  0
POLYLINE
  5
11BD
100
AcDbEntity
  8
VZ1
  6
CONTINUOUS
100
AcDbPolygonMesh
 66
     1
 10
0.0
 20
0.0
 30
0.0
 70
    16
 71
     5
 72
     4
  0
VERTEX
  5
11BE
100
AcDbEntity
  8
VZ1
  6
CONTINUOUS
100
AcDbVertex
100
AcDbPolygonMeshVertex
 10
-165.252965
 20
-162.459375
 30
-339.586559
 70
    64
  0
VERTEX
  5
11BF
100
AcDbEntity
  8
VZ1
  6
CONTINUOUS
100
AcDbVertex
100
AcDbPolygonMeshVertex
 10
-165.252965
 20
-162.459375
 30
-339.586559
 70
    64
  0
VERTEX
  5
11C0
100
AcDbEntity
  8
VZ1
  6
CONTINUOUS
100
AcDbVertex
100
AcDbPolygonMeshVertex
 10
13.452347
 20
-162.459375
 30
-339.586559
 70
    64
  0
VERTEX
  5
11C1
100
AcDbEntity
  8
VZ1
  6
CONTINUOUS
100
AcDbVertex
100
AcDbPolygonMeshVertex
 10
13.452347
 20
-162.459375
 30
-339.586559
 70
    64
  0
VERTEX
  5
11C2
100
AcDbEntity
  8
VZ1
  6
CONTINUOUS
100
AcDbVertex
100
AcDbPolygonMeshVertex
 10
-165.252965
 20
162.459375
 30
-339.586559
 70
    64
  0
VERTEX
  5
11C3
100
AcDbEntity
  8
VZ1
  6
CONTINUOUS
100
AcDbVertex
100
AcDbPolygonMeshVertex
 10
-165.252965
 20
162.459375
 30
-339.586559
 70
    64
  0
VERTEX
  5
11C4
100
AcDbEntity
  8
VZ1
  6
CONTINUOUS
100
AcDbVertex
100
AcDbPolygonMeshVertex
 10
13.452347
 20
162.459375
 30
-339.586559
 70
    64
  0
VERTEX
  5
11C5
100
AcDbEntity
  8
VZ1
  6
CONTINUOUS
100
AcDbVertex
100
AcDbPolygonMeshVertex
 10
13.452347
 20
162.459375
 30
-339.586559
 70
    64
  0
VERTEX
  5
11C6
100
AcDbEntity
  8
VZ1
  6
CONTINUOUS
100
AcDbVertex
100
AcDbPolygonMeshVertex
 10
-165.252965
 20
162.459375
 30
-339.586559
 70
    64
  0
VERTEX
  5
11C7
100
AcDbEntity
  8
VZ1
  6
CONTINUOUS
100
AcDbVertex
100
AcDbPolygonMeshVertex
 10
-213.990778
 20
162.459375
 30
-411.068684
 70
    64
  0
VERTEX
  5
11C8
100
AcDbEntity
  8
VZ1
  6
CONTINUOUS
100
AcDbVertex
100
AcDbPolygonMeshVertex
 10
13.452347
 20
162.459375
 30
-411.068684
 70
    64
  0
VERTEX
  5
11C9
100
AcDbEntity
  8
VZ1
  6
CONTINUOUS
100
AcDbVertex
100
AcDbPolygonMeshVertex
 10
13.452347
 20
162.459375
 30
-339.586559
 70
    64
  0
VERTEX
  5
11CA
100
AcDbEntity
  8
VZ1
  6
CONTINUOUS
100
AcDbVertex
100
AcDbPolygonMeshVertex
 10
-165.252965
 20
-162.459375
 30
-339.586559
 70
    64
  0
VERTEX
  5
11CB
100
AcDbEntity
  8
VZ1
  6
CONTINUOUS
100
AcDbVertex
100
AcDbPolygonMeshVertex
 10
-213.990778
 20
-162.459375
 30
-411.068684
 70
    64
  0
VERTEX
  5
11CC
100
AcDbEntity
  8
VZ1
  6
CONTINUOUS
100
AcDbVertex
100
AcDbPolygonMeshVertex
 10
13.452347
 20
-162.459375
 30
-411.068684
 70
    64
  0
VERTEX
  5
11CD
100
AcDbEntity
  8
VZ1
  6
CONTINUOUS
100
AcDbVertex
100
AcDbPolygonMeshVertex
 10
13.452347
 20
-162.459375
 30
-339.586559
 70
    64
  0
VERTEX
  5
11CE
100
AcDbEntity
  8
VZ1
  6
CONTINUOUS
100
AcDbVertex
100
AcDbPolygonMeshVertex
 10
-165.252965
 20
-162.459375
 30
-339.586559
 70
    64
  0
VERTEX
  5
11CF
100
AcDbEntity
  8
VZ1
  6
CONTINUOUS
100
AcDbVertex
100
AcDbPolygonMeshVertex
 10
-165.252965
 20
-162.459375
 30
-339.586559
 70
    64
  0
VERTEX
  5
11D0
100
AcDbEntity
  8
VZ1
  6
CONTINUOUS
100
AcDbVertex
100
AcDbPolygonMeshVertex
 10
13.452347
 20
-162.459375
 30
-339.586559
 70
    64
  0
VERTEX
  5
11D1
100
AcDbEntity
  8
VZ1
  6
CONTINUOUS
100
AcDbVertex
100
AcDbPolygonMeshVertex
 10
13.452347
 20
-162.459375
 30
-339.586559
 70
    64
  0
SEQEND
  5
11D2
100
AcDbEntity
  8
VZ1
  6
CONTINUOUS
  0
POLYLINE
  5
11D3
100
AcDbEntity
  8
VZ1
  6
CONTINUOUS
100
AcDbPolygonMesh
 66
     1
 10
0.0
 20
0.0
 30
0.0
 70
    16
 71
     6
 72
     3
  0
VERTEX
  5
11D4
100
AcDbEntity
  8
VZ1
  6
CONTINUOUS
100
AcDbVertex
100
AcDbPolygonMeshVertex
 10
13.452347
 20
-162.459375
 30
-411.068684
 70
    64
  0
VERTEX
  5
11D5
100
AcDbEntity
  8
VZ1
  6
CONTINUOUS
100
AcDbVertex
100
AcDbPolygonMeshVertex
 10
13.452347
 20
-162.459375
 30
-427.314622
 70
    64
  0
VERTEX
  5
11D6
100
AcDbEntity
  8
VZ1
  6
CONTINUOUS
100
AcDbVertex
100
AcDbPolygonMeshVertex
 10
13.452347
 20
-162.459375
 30
-427.314622
 70
    64
  0
VERTEX
  5
11D7
100
AcDbEntity
  8
VZ1
  6
CONTINUOUS
100
AcDbVertex
100
AcDbPolygonMeshVertex
 10
-278.974528
 20
-162.459375
 30
-411.068684
 70
    64
  0
VERTEX
  5
11D8
100
AcDbEntity
  8
VZ1
  6
CONTINUOUS
100
AcDbVertex
100
AcDbPolygonMeshVertex
 10
-278.974528
 20
-162.459375
 30
-427.314622
 70
    64
  0
VERTEX
  5
11D9
100
AcDbEntity
  8
VZ1
  6
CONTINUOUS
100
AcDbVertex
100
AcDbPolygonMeshVertex
 10
-278.974528
 20
-162.459375
 30
-427.314622
 70
    64
  0
VERTEX
  5
11DA
100
AcDbEntity
  8
VZ1
  6
CONTINUOUS
100
AcDbVertex
100
AcDbPolygonMeshVertex
 10
-278.974528
 20
162.459375
 30
-411.068684
 70
    64
  0
VERTEX
  5
11DB
100
AcDbEntity
  8
VZ1
  6
CONTINUOUS
100
AcDbVertex
100
AcDbPolygonMeshVertex
 10
-278.974528
 20
162.459375
 30
-427.314622
 70
    64
  0
VERTEX
  5
11DC
100
AcDbEntity
  8
VZ1
  6
CONTINUOUS
100
AcDbVertex
100
AcDbPolygonMeshVertex
 10
-278.974528
 20
-162.459375
 30
-427.314622
 70
    64
  0
VERTEX
  5
11DD
100
AcDbEntity
  8
VZ1
  6
CONTINUOUS
100
AcDbVertex
100
AcDbPolygonMeshVertex
 10
13.452347
 20
162.459375
 30
-411.068684
 70
    64
  0
VERTEX
  5
11DE
100
AcDbEntity
  8
VZ1
  6
CONTINUOUS
100
AcDbVertex
100
AcDbPolygonMeshVertex
 10
13.452347
 20
162.459375
 30
-427.314622
 70
    64
  0
VERTEX
  5
11DF
100
AcDbEntity
  8
VZ1
  6
CONTINUOUS
100
AcDbVertex
100
AcDbPolygonMeshVertex
 10
13.452347
 20
-162.459375
 30
-427.314622
 70
    64
  0
VERTEX
  5
11E0
100
AcDbEntity
  8
VZ1
  6
CONTINUOUS
100
AcDbVertex
100
AcDbPolygonMeshVertex
 10
13.452347
 20
162.459375
 30
-411.068684
 70
    64
  0
VERTEX
  5
11E1
100
AcDbEntity
  8
VZ1
  6
CONTINUOUS
100
AcDbVertex
100
AcDbPolygonMeshVertex
 10
13.452347
 20
162.459375
 30
-411.068684
 70
    64
  0
VERTEX
  5
11E2
100
AcDbEntity
  8
VZ1
  6
CONTINUOUS
100
AcDbVertex
100
AcDbPolygonMeshVertex
 10
13.452347
 20
-162.459375
 30
-411.068684
 70
    64
  0
VERTEX
  5
11E3
100
AcDbEntity
  8
VZ1
  6
CONTINUOUS
100
AcDbVertex
100
AcDbPolygonMeshVertex
 10
-278.974528
 20
162.459375
 30
-411.068684
 70
    64
  0
VERTEX
  5
11E4
100
AcDbEntity
  8
VZ1
  6
CONTINUOUS
100
AcDbVertex
100
AcDbPolygonMeshVertex
 10
-278.974528
 20
162.459375
 30
-411.068684
 70
    64
  0
VERTEX
  5
11E5
100
AcDbEntity
  8
VZ1
  6
CONTINUOUS
100
AcDbVertex
100
AcDbPolygonMeshVertex
 10
-278.974528
 20
-162.459375
 30
-411.068684
 70
    64
  0
SEQEND
  5
11E6
100
AcDbEntity
  8
VZ1
  6
CONTINUOUS
  0
3DSOLID
  5
11E7
100
AcDbEntity
  8
VZ1
  6
CONTINUOUS
100
AcDbModelerGeometry
 70
     1
  1
noi ko n o          
  1
=0;& {n {m {rn {rn |
  1
9@=0;&r3(;r>++-6= {rn {l {rn {o |
  1
3*2/ {k {rn {j {o |
  1
-:9@)+r3(;r>++-6= {rn {rn {n {o {i {h |
  1
-:9@)+r3(;r>++-6= {rn {rn {rn {m {i {h |
  1
,7:33 {g {rn {rn {f {m |
  1
-:961:2:1+ {rn o o o o lqnhhkkoniikhllggh o o o m |
  1
):-+:'@+:2/3>+: {rn l o n g |
  1
-:9@)+r3(;r>++-6= {rn {rn {rn {j {i {h |
  1
9><: {no {nn {nm {j {rn {nl 90-(>-; ,6183: |
  1
-:9@)+r3(;r>++-6= {rn {rn {rn {f {i {rn |
  1
9><: {nk {nj {ni {j {rn {nh 90-(>-; ,6183: |
  1
300/ {rn {ng {nf {f |
  1
<01:r,*-9><: {rn rmjiqmhjlofmknmkffk o mqjggmnnmofmgjjghj:ronk n o rnqglifofjlohlljijf:roni rmqlghfgmlgffjliljh:ronk o rnlo n V V o n o V V V V |
  1
-:9@)+r3(;r>++-6= {rn {rn {rn {nn {i {rn |
  1
9><: {mo {rn {mn {j {rn {mm 90-(>-; ,6183: |
  1
300/ {rn {rn {ml {nn |
  1
/3>1:r,*-9><: {rn rlhnqijolofmknmj o mqjggmnnmofmgjjghj:ronk rn o nqglifofjlohlljijf:roni mqfgkfhhfghkkmokki:roni o nqimj o V V V V |
  1
300/ {rn {rn {mk {f |
  1
<0:;8: {mj {nf {nf {ml {mi n {nm {rn |
  1
-:9@)+r3(;r>++-6= {rn {rn {rn {nj {i {rn |
  1
300/ {rn {rn {mh {nj |
  1
/3>1:r,*-9><: {rn rnkoqfoolofmknmkffk o mqjggmnnmofmgjjghj:ronk n o rnqglifofjlohlljijf:roni rmqfgkfhhfghkkmokki:roni o rnqimj o V V V V |
  1
<0:;8: {mg {ml {ml {nf {mi o {ni {rn |
  1
<0:;8: {mf {mk {mk {mh {lo n {ng {rn |
  1
<0/>-r3(;r>++-6= {rn {rn {rn {nf |
  1
:;8: {ln {lm {lm {ml {ll o |
  1
<0:;8: {lk {mh {mh {mk {lo o {mn {rn |
  1
<0/>-r3(;r>++-6= {rn {rn {rn {ml |
  1
<0/>-r3(;r>++-6= {rn {rn {rn {mk |
  1
:;8: {lj {li {li {mh {lh o |
  1
:/>-r3(;r>++-6= {rn {rn {rn {mi |
  1
):-+:' {rn {mi {lg |
  1
:336/,:r<*-): {rn rlhnqijolofmknmj o mqjggmnnmofmgjjghj:ronk rn o nqglifofjlohlljijf:roni rmqlghfgmlgffjliljh:ronk o rnlo n V V |
  1
<0/>-r3(;r>++-6= {rn {rn {rn {mh |
  1
:/>-r3(;r>++-6= {rn {rn {rn {lo |
  1
):-+:' {rn {lo {lf |
  1
:336/,:r<*-): {rn rnkoqfoolofmknmkffk o mqjggmnnmofmgjjghj:ronk n o rnqglifofjlohlljijf:roni rmqlghfgmlgffjliljh:ronk o rnlo n V V |
  1
/061+ {rn rlhnqijolofmknmj o rnmfqfffffffffffffk |
  1
/061+ {rn rnkoqfoolofmknmkffh o rnlo |
  0
CIRCLE
  5
11E8
100
AcDbEntity
  8
VZ1
  6
CONTINUOUS
100
AcDbCircle
 39
3.9
 10
0.0
 20
0.0
 30
10.900309
 40
266.5
210
-1.0
220
0.0
230
-0.0000000000000002
  0
CIRCLE
  5
11E9
100
AcDbEntity
  8
VZ1
  6
CONTINUOUS
100
AcDbCircle
 39
3.9
 10
0.0
 20
0.0
 30
-140.900309
 40
266.5
210
1.0
220
0.0
230
-0.0000000000000002
  0
CIRCLE
  5
11EA
100
AcDbEntity
  8
VZ1
  6
CONTINUOUS
100
AcDbCircle
 39
3.9
 10
0.0
 20
0.0
 30
-140.900309
 40
266.5
210
1.0
220
0.0
230
-0.0000000000000002
  0
3DSOLID
  5
11EB
100
AcDbEntity
  8
VZ1
  6
CONTINUOUS
100
AcDbModelerGeometry
 70
     1
  1
noi nm n o          
  1
=0;& {n {m {rn {rn |
  1
9@=0;&r3(;r>++-6= {rn {l {rn {o |
  1
3*2/ {k {rn {j {o |
  1
-:9@)+r3(;r>++-6= {rn {rn {n {o {i {h |
  1
-:9@)+r3(;r>++-6= {rn {rn {rn {m {i {h |
  1
,7:33 {g {rn {rn {f {m |
  1
-:961:2:1+ {rn o o o o lqnhhkkoniikhllggh o o o m |
  1
):-+:'@+:2/3>+: {rn l o n g |
  1
-:9@)+r3(;r>++-6= {rn {rn {rn {j {i {h |
  1
9><: {no {rn {rn {j {rn {nn 90-(>-; ,6183: |
  1
-:9@)+r3(;r>++-6= {rn {rn {rn {f {i {rn |
  1
+0-*,r,*-9><: {rn rhjqfoolofmknmkffmf o nqlfkmmoonkloghifj:ronk n o rnqglifofjlohlljijf:roni miiqj ij rnqglifofjlohlljijf:roni o rn o V V V V |
  0
3DSOLID
  5
11EC
100
AcDbEntity
  8
VZ1
  6
CONTINUOUS
100
AcDbModelerGeometry
 70
     1
  1
noi ko n o          
  1
=0;& {n {m {rn {rn |
  1
9@=0;&r3(;r>++-6= {rn {l {rn {o |
  1
3*2/ {k {rn {j {o |
  1
-:9@)+r3(;r>++-6= {rn {rn {n {o {i {h |
  1
-:9@)+r3(;r>++-6= {rn {rn {rn {m {i {h |
  1
,7:33 {g {rn {rn {f {m |
  1
-:961:2:1+ {rn o o o o lqnhhkkoniikhllggh o o o m |
  1
):-+:'@+:2/3>+: {rn l o n g |
  1
-:9@)+r3(;r>++-6= {rn {rn {rn {j {i {h |
  1
9><: {no {nn {nm {j {rn {nl 90-(>-; ,6183: |
  1
-:9@)+r3(;r>++-6= {rn {rn {rn {f {i {rn |
  1
9><: {nk {nj {ni {j {rn {nh 90-(>-; ,6183: |
  1
300/ {rn {ng {nf {f |
  1
<01:r,*-9><: {rn rhjqfoolofmknmkffmf rnhgqhojlnmjoooooog rmiiqj o rn rnqglifofjlohlljijf:roni ikqfglhjoooooooonj o o n V V o n o V V V V |
  1
-:9@)+r3(;r>++-6= {rn {rn {rn {nn {i {rn |
  1
9><: {mo {rn {mn {j {rn {mm 90-(>-; ,6183: |
  1
300/ {rn {rn {ml {nn |
  1
/3>1:r,*-9><: {rn rhjqfoolofmknmkffmf o rmiiqj o n nqglifofjlohlljijf:roni rmqniinmjoooooooooj o o o V V V V |
  1
300/ {rn {rn {mk {f |
  1
<0:;8: {mj {nf {nf {ml {mi n {nm {rn |
  1
-:9@)+r3(;r>++-6= {rn {rn {rn {nj {i {rn |
  1
300/ {rn {rn {mh {nj |
  1
/3>1:r,*-9><: {rn rhjqfoolofmknmkffmf rljhqknoimjoooooonj rmiiqjooooooooooooi o rn rnqglifofjlohlljijf:roni mqniinmjoooooooooj o o o V V V V |
  1
<0:;8: {mg {ml {ml {nf {mi o {ni {rn |
  1
<0:;8: {mf {mk {mk {mh {lo n {ng {rn |
  1
<0/>-r3(;r>++-6= {rn {rn {rn {nf |
  1
:;8: {ln {lm {lm {ml {ll o |
  1
<0:;8: {lk {mh {mh {mk {lo o {mn {rn |
  1
<0/>-r3(;r>++-6= {rn {rn {rn {ml |
  1
<0/>-r3(;r>++-6= {rn {rn {rn {mk |
  1
:;8: {lj {li {li {mh {lh o |
  1
:/>-r3(;r>++-6= {rn {rn {rn {mi |
  1
):-+:' {rn {mi {lg |
  1
:336/,:r<*-): {rn rhjqfoolofmknmkffmf o rmiiqj o n nqglifofjlohlljijf:roni ikqfglhjoooooooonj o o n V V |
  1
<0/>-r3(;r>++-6= {rn {rn {rn {mh |
  1
:/>-r3(;r>++-6= {rn {rn {rn {lo |
  1
):-+:' {rn {lo {lf |
  1
:336/,:r<*-): {rn rhjqfoolofmknmkffmf rljhqknoimjoooooonj rmiiqjooooooooooooi o rn rnqglifofjlohlljijf:roni ikqfglhjoooooooonj o o n V V |
  1
/061+ {rn rnoqfnijjfmknmkffnk o rmiiqj |
  1
/061+ {rn rnoqfnijjfmknmkffnk rljhqknoimjoooooonj rmiiqjooooooooooooi |
  0
CIRCLE
  5
11ED
100
AcDbEntity
  8
VZ1
  6
CONTINUOUS
100
AcDbCircle
 39
5.1987
 10
-75.900309
 20
-266.5
 30
352.211925
 40
103.974
210
0.0
220
-1.0
230
-0.0000000000000002
  0
POINT
  5
11EE
100
AcDbEntity
  8
VZ1
  6
CONTINUOUS
100
AcDbPoint
 10
-75.900309
 20
-357.410625
 30
-266.5
210
0.0
220
-1.0
230
-0.0000000000000002
  0
ENDBLK
  5
11EF
100
AcDbEntity
  8
0
100
AcDbBlockEnd
  0
BLOCK
  5
F10
100
AcDbEntity
  8
0
100
AcDbBlockBegin
  2
*D17
 70
     1
 10
0.0
 20
0.0
 30
0.0
  3
*D17
  1

  0
LINE
  5
F11
100
AcDbEntity
  8
0
  6
BYBLOCK
 62
     1
100
AcDbLine
 10
-76.886859
 20
-219.945
 30
0.0
 11
-5.759141
 21
-219.945
 31
0.0
  0
MTEXT
  5
F12
100
AcDbEntity
  8
0
  6
BYBLOCK
 62
     1
100
AcDbMText
 10
-13.466817
 20
-730.026111
 30
0.0
 40
50.0
 41
0.0
 71
     5
 72
     1
  1
\A1;\U+220580
  7
ROMANS
  0
INSERT
  5
F13
100
AcDbEntity
  8
0
  6
BYBLOCK
 62
     1
100
AcDbBlockReference
  2
_OBLIQUE
 10
-76.886859
 20
-219.945
 30
0.0
 41
2.0
 42
2.0
 43
2.0
 50
180.0
  0
INSERT
  5
F14
100
AcDbEntity
  8
0
  6
BYBLOCK
 62
     1
100
AcDbBlockReference
  2
_OBLIQUE
 10
-5.759141
 20
-219.945
 30
0.0
 41
2.0
 42
2.0
 43
2.0
  0
POINT
  5
F15
100
AcDbEntity
  8
DEFPOINTS
  6
BYBLOCK
 62
     0
100
AcDbPoint
 10
-5.759141
 20
-219.945
 30
-204.906935
  0
POINT
  5
F16
100
AcDbEntity
  8
DEFPOINTS
  6
BYBLOCK
 62
     0
100
AcDbPoint
 10
-76.886859
 20
-219.945
 30
-168.333065
  0
ENDBLK
  5
F17
100
AcDbEntity
  8
0
100
AcDbBlockEnd
  0
BLOCK
  5
F1A
100
AcDbEntity
  8
0
100
AcDbBlockBegin
  2
*D18
 70
     1
 10
0.0
 20
0.0
 30
0.0
  3
*D18
  1

  0
LINE
  5
F1B
100
AcDbEntity
  8
0
  6
BYBLOCK
 62
     1
100
AcDbLine
 10
0.2666
 20
72.772454
 30
0.0
 11
0.2666
 21
-72.772454
 31
0.0
  0
MTEXT
  5
F1C
100
AcDbEntity
  8
0
  6
BYBLOCK
 62
     1
100
AcDbMText
 10
210.194211
 20
-164.015706
 30
0.0
 40
50.0
 41
0.0
 71
     5
 72
     1
  1
\A1;\U+2205147
  7
ROMANS
 11
0.0
 21
1.0
 31
0.0
  0
INSERT
  5
F1D
100
AcDbEntity
  8
0
  6
BYBLOCK
 62
     1
100
AcDbBlockReference
  2
_OBLIQUE
 10
0.2666
 20
72.772454
 30
0.0
 41
2.0
 42
2.0
 43
2.0
 50
90.0
  0
INSERT
  5
F1E
100
AcDbEntity
  8
0
  6
BYBLOCK
 62
     1
100
AcDbBlockReference
  2
_OBLIQUE
 10
0.2666
 20
-72.772454
 30
0.0
 41
2.0
 42
2.0
 43
2.0
 50
270.0
  0
POINT
  5
F1F
100
AcDbEntity
  8
DEFPOINTS
  6
BYBLOCK
 62
     0
100
AcDbPoint
 10
0.2666
 20
-72.772454
 30
8.902765
  0
POINT
  5
F20
100
AcDbEntity
  8
DEFPOINTS
  6
BYBLOCK
 62
     0
100
AcDbPoint
 10
0.2666
 20
72.772454
 30
-8.902765
  0
ENDBLK
  5
F21
100
AcDbEntity
  8
0
100
AcDbBlockEnd
  0
BLOCK
  5
F5A
100
AcDbEntity
  8
0
100
AcDbBlockBegin
  2
*D19
 70
     1
 10
0.0
 20
0.0
 30
0.0
  3
*D19
  1

  0
LINE
  5
F5B
100
AcDbEntity
  8
0
  6
BYBLOCK
 62
     1
100
AcDbLine
 10
0.22661
 20
60.245604
 30
0.0
 11
0.22661
 21
-60.245604
 31
0.0
  0
MTEXT
  5
F5C
100
AcDbEntity
  8
0
  6
BYBLOCK
 62
     1
100
AcDbMText
 10
163.800368
 20
-138.868841
 30
0.0
 40
50.0
 41
0.0
 71
     5
 72
     1
  1
\A1;\U+2205125
  7
ROMANS
 11
0.0
 21
1.0
 31
0.0
  0
INSERT
  5
F5D
100
AcDbEntity
  8
0
  6
BYBLOCK
 62
     1
100
AcDbBlockReference
  2
_OBLIQUE
 10
0.22661
 20
60.245604
 30
0.0
 41
2.0
 42
2.0
 43
2.0
 50
90.0
  0
INSERT
  5
F5E
100
AcDbEntity
  8
0
  6
BYBLOCK
 62
     1
100
AcDbBlockReference
  2
_OBLIQUE
 10
0.22661
 20
-60.245604
 30
0.0
 41
2.0
 42
2.0
 43
2.0
 50
270.0
  0
POINT
  5
F5F
100
AcDbEntity
  8
DEFPOINTS
  6
BYBLOCK
 62
     0
100
AcDbPoint
 10
0.22661
 20
-60.245604
 30
15.93641
  0
POINT
  5
F60
100
AcDbEntity
  8
DEFPOINTS
  6
BYBLOCK
 62
     0
100
AcDbPoint
 10
0.22661
 20
60.245604
 30
-15.93641
  0
ENDBLK
  5
F61
100
AcDbEntity
  8
0
100
AcDbBlockEnd
  0
BLOCK
  5
F64
100
AcDbEntity
  8
0
100
AcDbBlockBegin
  2
*D20
 70
     1
 10
0.0
 20
0.0
 30
0.0
  3
*D20
  1

  0
LINE
  5
F65
100
AcDbEntity
  8
0
  6
BYBLOCK
 62
     1
100
AcDbLine
 10
-266.6
 20
-0.625
 30
0.0
 11
-266.6
 21
-856.466137
 31
0.0
  0
LINE
  5
F66
100
AcDbEntity
  8
0
  6
BYBLOCK
 62
     1
100
AcDbLine
 10
0.0
 20
-0.625
 30
0.0
 11
0.0
 21
-856.466137
 31
0.0
  0
LINE
  5
F67
100
AcDbEntity
  8
0
  6
BYBLOCK
 62
     1
100
AcDbLine
 10
-266.6
 20
-855.466137
 30
0.0
 11
0.0
 21
-855.466137
 31
0.0
  0
INSERT
  5
F68
100
AcDbEntity
  8
0
  6
BYBLOCK
 62
     1
100
AcDbBlockReference
  2
_OBLIQUE
 10
-266.6
 20
-855.466137
 30
0.0
 41
2.0
 42
2.0
 43
2.0
 50
180.0
  0
INSERT
  5
F69
100
AcDbEntity
  8
0
  6
BYBLOCK
 62
     1
100
AcDbBlockReference
  2
_OBLIQUE
 10
0.0
 20
-855.466137
 30
0.0
 41
2.0
 42
2.0
 43
2.0
  0
MTEXT
  5
F6A
100
AcDbEntity
  8
0
  6
BYBLOCK
 62
     1
100
AcDbMText
 10
-133.3
 20
-829.841137
 30
0.0
 40
50.0
 41
0.0
 71
     5
 72
     1
  1
\A1;267
  7
ROMANS
  0
POINT
  5
F6B
100
AcDbEntity
  8
DEFPOINTS
  6
BYBLOCK
 62
     0
100
AcDbPoint
 10
-266.6
 20
0.0
 30
0.0
  0
POINT
  5
F6C
100
AcDbEntity
  8
DEFPOINTS
  6
BYBLOCK
 62
     0
100
AcDbPoint
 10
0.0
 20
0.0
 30
0.0
  0
POINT
  5
F6D
100
AcDbEntity
  8
DEFPOINTS
  6
BYBLOCK
 62
     0
100
AcDbPoint
 10
0.0
 20
-855.466137
 30
0.0
  0
ENDBLK
  5
F6E
100
AcDbEntity
  8
0
100
AcDbBlockEnd
  0
BLOCK
  5
F71
100
AcDbEntity
  8
0
100
AcDbBlockBegin
  2
*D21
 70
     1
 10
0.0
 20
0.0
 30
0.0
  3
*D21
  1

  0
LINE
  5
F72
100
AcDbEntity
  8
0
  6
BYBLOCK
 62
     1
100
AcDbLine
 10
-266.6
 20
0.625
 30
0.0
 11
-266.6
 21
352.929265
 31
0.0
  0
LINE
  5
F73
100
AcDbEntity
  8
0
  6
BYBLOCK
 62
     1
100
AcDbLine
 10
-79.98
 20
0.625
 30
0.0
 11
-79.98
 21
352.929265
 31
0.0
  0
LINE
  5
F74
100
AcDbEntity
  8
0
  6
BYBLOCK
 62
     1
100
AcDbLine
 10
-266.6
 20
351.929265
 30
0.0
 11
-79.98
 21
351.929265
 31
0.0
  0
INSERT
  5
F75
100
AcDbEntity
  8
0
  6
BYBLOCK
 62
     1
100
AcDbBlockReference
  2
_OBLIQUE
 10
-266.6
 20
351.929265
 30
0.0
 41
2.0
 42
2.0
 43
2.0
 50
180.0
  0
INSERT
  5
F76
100
AcDbEntity
  8
0
  6
BYBLOCK
 62
     1
100
AcDbBlockReference
  2
_OBLIQUE
 10
-79.98
 20
351.929265
 30
0.0
 41
2.0
 42
2.0
 43
2.0
  0
MTEXT
  5
F77
100
AcDbEntity
  8
0
  6
BYBLOCK
 62
     1
100
AcDbMText
 10
-173.29
 20
377.554265
 30
0.0
 40
50.0
 41
0.0
 71
     5
 72
     1
  1
\A1;187
  7
ROMANS
  0
POINT
  5
F78
100
AcDbEntity
  8
DEFPOINTS
  6
BYBLOCK
 62
     0
100
AcDbPoint
 10
-266.6
 20
0.0
 30
0.0
  0
POINT
  5
F79
100
AcDbEntity
  8
DEFPOINTS
  6
BYBLOCK
 62
     0
100
AcDbPoint
 10
-79.98
 20
0.0
 30
0.0
  0
POINT
  5
F7A
100
AcDbEntity
  8
DEFPOINTS
  6
BYBLOCK
 62
     0
100
AcDbPoint
 10
-79.98
 20
351.929265
 30
0.0
  0
ENDBLK
  5
F7B
100
AcDbEntity
  8
0
100
AcDbBlockEnd
  0
BLOCK
  5
F7E
100
AcDbEntity
  8
0
100
AcDbBlockBegin
  2
*D22
 70
     1
 10
0.0
 20
0.0
 30
0.0
  3
*D22
  1

  0
LINE
  5
F7F
100
AcDbEntity
  8
0
  6
BYBLOCK
 62
     1
100
AcDbLine
 10
-22.285242
 20
62.813935
 30
0.0
 11
22.285242
 21
-62.813935
 31
0.0
  0
MTEXT
  5
F80
100
AcDbEntity
  8
0
  6
BYBLOCK
 62
     1
100
AcDbMText
 10
942.782309
 20
-319.434912
 30
0.0
 40
50.0
 41
0.0
 71
     5
 72
     1
  1
\A1;\U+2205133
  7
ROMANS
 11
0.334362
 21
-0.942445
 31
0.0
  0
INSERT
  5
F81
100
AcDbEntity
  8
0
  6
BYBLOCK
 62
     1
100
AcDbBlockReference
  2
_OBLIQUE
 10
-22.285242
 20
62.813935
 30
0.0
 41
2.0
 42
2.0
 43
2.0
 50
109.53376
  0
INSERT
  5
F82
100
AcDbEntity
  8
0
  6
BYBLOCK
 62
     1
100
AcDbBlockReference
  2
_OBLIQUE
 10
22.285242
 20
-62.813935
 30
0.0
 41
2.0
 42
2.0
 43
2.0
 50
289.53376
  0
POINT
  5
F83
100
AcDbEntity
  8
DEFPOINTS
  6
BYBLOCK
 62
     0
100
AcDbPoint
 10
22.285242
 20
-62.813935
 30
-266.6
 50
90.0
  0
POINT
  5
F84
100
AcDbEntity
  8
DEFPOINTS
  6
BYBLOCK
 62
     0
100
AcDbPoint
 10
-22.285242
 20
62.813935
 30
-266.6
 50
90.0
  0
ENDBLK
  5
F85
100
AcDbEntity
  8
0
100
AcDbBlockEnd
  0
BLOCK
  5
F89
100
AcDbEntity
  8
0
100
AcDbBlockBegin
  2
*D23
 70
     1
 10
0.0
 20
0.0
 30
0.0
  3
*D23
  1

  0
LINE
  5
F8A
100
AcDbEntity
  8
0
  6
BYBLOCK
 62
     1
100
AcDbLine
 10
-221.98
 20
1.25
 30
0.0
 11
-221.98
 21
494.008551
 31
0.0
  0
LINE
  5
F8B
100
AcDbEntity
  8
0
  6
BYBLOCK
 62
     1
100
AcDbLine
 10
-2.666
 20
0.625
 30
0.0
 11
-2.666
 21
494.008551
 31
0.0
  0
LINE
  5
F8C
100
AcDbEntity
  8
0
  6
BYBLOCK
 62
     1
100
AcDbLine
 10
-221.98
 20
493.008551
 30
0.0
 11
-2.666
 21
493.008551
 31
0.0
  0
INSERT
  5
F8D
100
AcDbEntity
  8
0
  6
BYBLOCK
 62
     1
100
AcDbBlockReference
  2
_OBLIQUE
 10
-221.98
 20
493.008551
 30
0.0
 41
2.0
 42
2.0
 43
2.0
 50
180.0
  0
INSERT
  5
F8E
100
AcDbEntity
  8
0
  6
BYBLOCK
 62
     1
100
AcDbBlockReference
  2
_OBLIQUE
 10
-2.666
 20
493.008551
 30
0.0
 41
2.0
 42
2.0
 43
2.0
  0
MTEXT
  5
F8F
100
AcDbEntity
  8
0
  6
BYBLOCK
 62
     1
100
AcDbMText
 10
-112.323
 20
518.633551
 30
0.0
 40
50.0
 41
0.0
 71
     5
 72
     1
  1
\A1;219
  7
ROMANS
  0
POINT
  5
F90
100
AcDbEntity
  8
DEFPOINTS
  6
BYBLOCK
 62
     0
100
AcDbPoint
 10
-221.98
 20
0.625
 30
0.0
  0
POINT
  5
F91
100
AcDbEntity
  8
DEFPOINTS
  6
BYBLOCK
 62
     0
100
AcDbPoint
 10
-2.666
 20
0.0
 30
0.0
  0
POINT
  5
F92
100
AcDbEntity
  8
DEFPOINTS
  6
BYBLOCK
 62
     0
100
AcDbPoint
 10
-2.666
 20
493.008551
 30
0.0
  0
ENDBLK
  5
F93
100
AcDbEntity
  8
0
100
AcDbBlockEnd
  0
BLOCK
  5
FD2
100
AcDbEntity
  8
0
100
AcDbBlockBegin
  2
*D24
 70
     1
 10
0.0
 20
0.0
 30
0.0
  3
*D24
  1

  0
LINE
  5
FD3
100
AcDbEntity
  8
0
  6
BYBLOCK
 62
     1
100
AcDbLine
 10
-84.549897
 20
-274.93125
 30
0.0
 11
-18.757603
 21
-274.93125
 31
0.0
  0
MTEXT
  5
FD4
100
AcDbEntity
  8
0
  6
BYBLOCK
 62
     1
100
AcDbMText
 10
-32.863498
 20
-715.584736
 30
0.0
 40
50.0
 41
0.0
 71
     5
 72
     1
  1
\A1;\U+2205100
  7
ROMANS
  0
INSERT
  5
FD5
100
AcDbEntity
  8
0
  6
BYBLOCK
 62
     1
100
AcDbBlockReference
  2
_OBLIQUE
 10
-84.549897
 20
-274.93125
 30
0.0
 41
2.0
 42
2.0
 43
2.0
 50
180.0
  0
INSERT
  5
FD6
100
AcDbEntity
  8
0
  6
BYBLOCK
 62
     1
100
AcDbBlockReference
  2
_OBLIQUE
 10
-18.757603
 20
-274.93125
 30
0.0
 41
2.0
 42
2.0
 43
2.0
  0
POINT
  5
FD7
100
AcDbEntity
  8
DEFPOINTS
  6
BYBLOCK
 62
     0
100
AcDbPoint
 10
-18.757603
 20
-274.93125
 30
-270.912663
  0
POINT
  5
FD8
100
AcDbEntity
  8
DEFPOINTS
  6
BYBLOCK
 62
     0
100
AcDbPoint
 10
-84.549897
 20
-274.93125
 30
-195.637337
  0
ENDBLK
  5
FD9
100
AcDbEntity
  8
0
100
AcDbBlockEnd
  0
BLOCK
  5
101B
100
AcDbEntity
  8
0
100
AcDbBlockBegin
  2
*D25
 70
     1
 10
0.0
 20
0.0
 30
0.0
  3
*D25
  1

  0
LINE
  5
101C
100
AcDbEntity
  8
0
  6
BYBLOCK
 62
     1
100
AcDbLine
 10
0.254086
 20
36.209311
 30
0.0
 11
0.254086
 21
-36.209311
 31
0.0
  0
MTEXT
  5
101D
100
AcDbEntity
  8
0
  6
BYBLOCK
 62
     1
100
AcDbMText
 10
197.326667
 20
61.355377
 30
0.0
 40
50.0
 41
0.0
 71
     5
 72
     1
  1
\A1;\U+2205140
  7
ROMANS
 11
0.0
 21
1.0
 31
0.0
  0
INSERT
  5
101E
100
AcDbEntity
  8
0
  6
BYBLOCK
 62
     1
100
AcDbBlockReference
  2
_OBLIQUE
 10
0.254086
 20
36.209311
 30
0.0
 41
2.0
 42
2.0
 43
2.0
 50
90.0
  0
INSERT
  5
101F
100
AcDbEntity
  8
0
  6
BYBLOCK
 62
     1
100
AcDbBlockReference
  2
_OBLIQUE
 10
0.254086
 20
-36.209311
 30
0.0
 41
2.0
 42
2.0
 43
2.0
 50
270.0
  0
POINT
  5
1020
100
AcDbEntity
  8
DEFPOINTS
  6
BYBLOCK
 62
     0
100
AcDbPoint
 10
0.254086
 20
-36.209311
 30
59.759774
  0
POINT
  5
1021
100
AcDbEntity
  8
DEFPOINTS
  6
BYBLOCK
 62
     0
100
AcDbPoint
 10
0.254086
 20
36.209311
 30
-59.759774
  0
ENDBLK
  5
1022
100
AcDbEntity
  8
0
100
AcDbBlockEnd
  0
BLOCK
  5
1024
100
AcDbEntity
  8
0
100
AcDbBlockBegin
  2
*D26
 70
     1
 10
0.0
 20
0.0
 30
0.0
  3
*D26
  1

  0
LINE
  5
1025
100
AcDbEntity
  8
0
  6
BYBLOCK
 62
     1
100
AcDbLine
 10
-267.433125
 20
-239.121486
 30
0.0
 11
-267.433125
 21
-227.428514
 31
0.0
  0
MTEXT
  5
1026
100
AcDbEntity
  8
0
  6
BYBLOCK
 62
     1
100
AcDbMText
 10
-653.053037
 20
-73.496093
 30
0.0
 40
50.0
 41
0.0
 71
     5
 72
     1
  1
\A1;\U+2205200
  7
ROMANS
 11
0.0
 21
-1.0
 31
0.0
  0
INSERT
  5
1027
100
AcDbEntity
  8
0
  6
BYBLOCK
 62
     1
100
AcDbBlockReference
  2
_OBLIQUE
 10
-267.433125
 20
-239.121486
 30
0.0
 41
2.0
 42
2.0
 43
2.0
 50
270.0
  0
INSERT
  5
1028
100
AcDbEntity
  8
0
  6
BYBLOCK
 62
     1
100
AcDbBlockReference
  2
_OBLIQUE
 10
-267.433125
 20
-227.428514
 30
0.0
 41
2.0
 42
2.0
 43
2.0
 50
90.0
  0
POINT
  5
1029
100
AcDbEntity
  8
DEFPOINTS
  6
BYBLOCK
 62
     0
100
AcDbPoint
 10
-267.433125
 20
-227.428514
 30
48.150154
 50
90.0
  0
POINT
  5
102A
100
AcDbEntity
  8
DEFPOINTS
  6
BYBLOCK
 62
     0
100
AcDbPoint
 10
-267.433125
 20
-239.121486
 30
-151.457654
 50
90.0
  0
ENDBLK
  5
102B
100
AcDbEntity
  8
0
100
AcDbBlockEnd
  0
BLOCK
  5
102E
100
AcDbEntity
  8
0
100
AcDbBlockBegin
  2
*D27
 70
     1
 10
0.0
 20
0.0
 30
0.0
  3
*D27
  1

  0
LINE
  5
102F
100
AcDbEntity
  8
0
  6
BYBLOCK
 62
     1
100
AcDbLine
 10
-249.499828
 20
14.784773
 30
0.0
 11
249.499828
 21
-14.784773
 31
0.0
  0
MTEXT
  5
1030
100
AcDbEntity
  8
0
  6
BYBLOCK
 62
     1
100
AcDbMText
 10
1.515818
 20
25.580127
 30
0.0
 40
50.0
 41
0.0
 71
     5
 72
     1
  1
\A1;\U+2205500
  7
ROMANS
 11
0.998249
 21
-0.059154
 31
0.0
  0
INSERT
  5
1031
100
AcDbEntity
  8
0
  6
BYBLOCK
 62
     1
100
AcDbBlockReference
  2
_OBLIQUE
 10
-249.499828
 20
14.784773
 30
0.0
 41
2.0
 42
2.0
 43
2.0
 50
176.608753
  0
INSERT
  5
1032
100
AcDbEntity
  8
0
  6
BYBLOCK
 62
     1
100
AcDbBlockReference
  2
_OBLIQUE
 10
249.499828
 20
-14.784773
 30
0.0
 41
2.0
 42
2.0
 43
2.0
 50
356.608753
  0
POINT
  5
1033
100
AcDbEntity
  8
DEFPOINTS
  6
BYBLOCK
 62
     0
100
AcDbPoint
 10
249.499828
 20
-14.784773
 30
-99.975
 50
90.0
  0
POINT
  5
1034
100
AcDbEntity
  8
DEFPOINTS
  6
BYBLOCK
 62
     0
100
AcDbPoint
 10
-249.499828
 20
14.784773
 30
-99.975
 50
90.0
  0
ENDBLK
  5
1035
100
AcDbEntity
  8
0
100
AcDbBlockEnd
  0
BLOCK
  5
104C
100
AcDbEntity
  8
0
100
AcDbBlockBegin
  2
*D28
 70
     1
 10
0.0
 20
0.0
 30
0.0
  3
*D28
  1

  0
LINE
  5
104D
100
AcDbEntity
  8
0
  6
BYBLOCK
 62
     1
100
AcDbLine
 10
0.254086
 20
-567.038867
 30
0.0
 11
0.254086
 21
-702.101194
 31
0.0
  0
MTEXT
  5
104E
100
AcDbEntity
  8
0
  6
BYBLOCK
 62
     1
100
AcDbMText
 10
160.035738
 20
-719.724635
 30
0.0
 40
50.0
 41
0.0
 71
     5
 72
     1
  1
\A1;\U+2205140
  7
ROMANS
 11
0.0
 21
1.0
 31
0.0
  0
INSERT
  5
104F
100
AcDbEntity
  8
0
  6
BYBLOCK
 62
     1
100
AcDbBlockReference
  2
_OBLIQUE
 10
0.254086
 20
-567.038867
 30
0.0
 41
2.0
 42
2.0
 43
2.0
 50
90.0
  0
INSERT
  5
1050
100
AcDbEntity
  8
0
  6
BYBLOCK
 62
     1
100
AcDbBlockReference
  2
_OBLIQUE
 10
0.254086
 20
-702.101194
 30
0.0
 41
2.0
 42
2.0
 43
2.0
 50
270.0
  0
POINT
  5
1051
100
AcDbEntity
  8
DEFPOINTS
  6
BYBLOCK
 62
     0
100
AcDbPoint
 10
0.254086
 20
-702.101194
 30
-17.941201
  0
POINT
  5
1052
100
AcDbEntity
  8
DEFPOINTS
  6
BYBLOCK
 62
     0
100
AcDbPoint
 10
0.254086
 20
-567.038867
 30
17.941201
  0
ENDBLK
  5
1053
100
AcDbEntity
  8
0
100
AcDbBlockEnd
  0
BLOCK
  5
1114
100
AcDbEntity
  8
0
100
AcDbBlockBegin
  2
*D29
 70
     1
 10
0.0
 20
0.0
 30
0.0
  3
*D29
  1

  0
LINE
  5
1115
100
AcDbEntity
  8
0
  6
BYBLOCK
 62
     1
100
AcDbLine
 10
-123.773747
 20
-357.410625
 30
0.0
 11
-28.026872
 21
-357.410625
 31
0.0
  0
MTEXT
  5
1116
100
AcDbEntity
  8
0
  6
BYBLOCK
 62
     1
100
AcDbMText
 10
-201.49866
 20
-1497.708418
 30
0.0
 40
50.0
 41
0.0
 71
     5
 72
     1
  1
\A1;\U+2205130
  7
ROMANS
  0
INSERT
  5
1117
100
AcDbEntity
  8
0
  6
BYBLOCK
 62
     1
100
AcDbBlockReference
  2
_OBLIQUE
 10
-123.773747
 20
-357.410625
 30
0.0
 41
2.0
 42
2.0
 43
2.0
 50
180.0
  0
INSERT
  5
1118
100
AcDbEntity
  8
0
  6
BYBLOCK
 62
     1
100
AcDbBlockReference
  2
_OBLIQUE
 10
-28.026872
 20
-357.410625
 30
0.0
 41
2.0
 42
2.0
 43
2.0
  0
POINT
  5
1119
100
AcDbEntity
  8
DEFPOINTS
  6
BYBLOCK
 62
     0
100
AcDbPoint
 10
-28.026872
 20
-357.410625
 30
-222.556608
  0
POINT
  5
111A
100
AcDbEntity
  8
DEFPOINTS
  6
BYBLOCK
 62
     0
100
AcDbPoint
 10
-123.773747
 20
-357.410625
 30
-310.443392
  0
ENDBLK
  5
111B
100
AcDbEntity
  8
0
100
AcDbBlockEnd
  0
BLOCK
  5
111E
100
AcDbEntity
  8
0
100
AcDbBlockBegin
  2
*D30
 70
     1
 10
0.0
 20
0.0
 30
0.0
  3
*D30
  1

  0
LINE
  5
111F
100
AcDbEntity
  8
0
  6
BYBLOCK
 62
     1
100
AcDbLine
 10
-10.900309
 20
29.823747
 30
0.0
 11
-10.900309
 21
-29.823747
 31
0.0
  0
MTEXT
  5
1120
100
AcDbEntity
  8
0
  6
BYBLOCK
 62
     1
100
AcDbMText
 10
271.33316
 20
49.563759
 30
0.0
 40
50.0
 41
0.0
 71
     5
 72
     1
  1
\A1;\U+2205182
  7
ROMANS
 11
0.0
 21
1.0
 31
0.0
  0
INSERT
  5
1121
100
AcDbEntity
  8
0
  6
BYBLOCK
 62
     1
100
AcDbBlockReference
  2
_OBLIQUE
 10
-10.900309
 20
29.823747
 30
0.0
 41
2.0
 42
2.0
 43
2.0
 50
90.0
  0
INSERT
  5
1122
100
AcDbEntity
  8
0
  6
BYBLOCK
 62
     1
100
AcDbBlockReference
  2
_OBLIQUE
 10
-10.900309
 20
-29.823747
 30
0.0
 41
2.0
 42
2.0
 43
2.0
 50
270.0
  0
POINT
  5
1123
100
AcDbEntity
  8
DEFPOINTS
  6
BYBLOCK
 62
     0
100
AcDbPoint
 10
-10.900309
 20
-29.823747
 30
85.800389
  0
POINT
  5
1124
100
AcDbEntity
  8
DEFPOINTS
  6
BYBLOCK
 62
     0
100
AcDbPoint
 10
-10.900309
 20
29.823747
 30
-85.800389
  0
ENDBLK
  5
1125
100
AcDbEntity
  8
0
100
AcDbBlockEnd
  0
BLOCK
  5
1128
100
AcDbEntity
  8
0
100
AcDbBlockBegin
  2
*D31
 70
     1
 10
0.0
 20
0.0
 30
0.0
  3
*D31
  1

  0
LINE
  5
1129
100
AcDbEntity
  8
0
  6
BYBLOCK
 62
     1
100
AcDbLine
 10
291.784261
 20
269.016782
 30
0.0
 11
1346.331704
 21
269.016782
 31
0.0
  0
LINE
  5
112A
100
AcDbEntity
  8
0
  6
BYBLOCK
 62
     1
100
AcDbLine
 10
291.784261
 20
-496.541629
 30
0.0
 11
1346.331704
 21
-496.541629
 31
0.0
  0
LINE
  5
112B
100
AcDbEntity
  8
0
  6
BYBLOCK
 62
     1
100
AcDbLine
 10
1345.331704
 20
269.016782
 30
0.0
 11
1345.331704
 21
-496.541629
 31
0.0
  0
INSERT
  5
112C
100
AcDbEntity
  8
0
  6
BYBLOCK
 62
     1
100
AcDbBlockReference
  2
_OBLIQUE
 10
1345.331704
 20
269.016782
 30
0.0
 41
2.0
 42
2.0
 43
2.0
 50
90.0
  0
INSERT
  5
112D
100
AcDbEntity
  8
0
  6
BYBLOCK
 62
     1
100
AcDbBlockReference
  2
_OBLIQUE
 10
1345.331704
 20
-496.541629
 30
0.0
 41
2.0
 42
2.0
 43
2.0
 50
270.0
  0
MTEXT
  5
112E
100
AcDbEntity
  8
0
  6
BYBLOCK
 62
     1
100
AcDbMText
 10
1370.956704
 20
-113.762424
 30
0.0
 40
50.0
 41
0.0
 71
     5
 72
     1
  1
\A1;766
  7
ROMANS
 11
0.0
 21
-1.0
 31
0.0
  0
POINT
  5
112F
100
AcDbEntity
  8
DEFPOINTS
  6
BYBLOCK
 62
     0
100
AcDbPoint
 10
291.159261
 20
269.016782
 30
0.0
 50
90.0
  0
POINT
  5
1130
100
AcDbEntity
  8
DEFPOINTS
  6
BYBLOCK
 62
     0
100
AcDbPoint
 10
291.159261
 20
-496.541629
 30
0.0
 50
90.0
  0
POINT
  5
1131
100
AcDbEntity
  8
DEFPOINTS
  6
BYBLOCK
 62
     0
100
AcDbPoint
 10
1345.331704
 20
-496.541629
 30
0.0
 50
90.0
  0
ENDBLK
  5
1132
100
AcDbEntity
  8
0
100
AcDbBlockEnd
  0
BLOCK
  5
1135
100
AcDbEntity
  8
0
100
AcDbBlockBegin
  2
*D32
 70
     1
 10
0.0
 20
0.0
 30
0.0
  3
*D32
  1

  0
LINE
  5
1136
100
AcDbEntity
  8
0
  6
BYBLOCK
 62
     1
100
AcDbLine
 10
69.011898
 20
-59.063699
 30
0.0
 11
-69.011898
 21
59.063699
 31
0.0
  0
MTEXT
  5
1137
100
AcDbEntity
  8
0
  6
BYBLOCK
 62
     1
100
AcDbMText
 10
-935.514129
 20
242.324232
 30
0.0
 40
50.0
 41
0.0
 71
     5
 72
     1
  1
\A1;\U+2205182
  7
ROMANS
 11
0.759742
 21
-0.650224
 31
0.0
  0
INSERT
  5
1138
100
AcDbEntity
  8
0
  6
BYBLOCK
 62
     1
100
AcDbBlockReference
  2
_OBLIQUE
 10
69.011898
 20
-59.063699
 30
0.0
 41
2.0
 42
2.0
 43
2.0
 50
319.441499
  0
INSERT
  5
1139
100
AcDbEntity
  8
0
  6
BYBLOCK
 62
     1
100
AcDbBlockReference
  2
_OBLIQUE
 10
-69.011898
 20
59.063699
 30
0.0
 41
2.0
 42
2.0
 43
2.0
 50
139.441499
  0
POINT
  5
113A
100
AcDbEntity
  8
DEFPOINTS
  6
BYBLOCK
 62
     0
100
AcDbPoint
 10
-69.011898
 20
59.063699
 30
-10.900309
 50
90.0
  0
POINT
  5
113B
100
AcDbEntity
  8
DEFPOINTS
  6
BYBLOCK
 62
     0
100
AcDbPoint
 10
69.011898
 20
-59.063699
 30
-10.900309
 50
90.0
  0
ENDBLK
  5
113C
100
AcDbEntity
  8
0
100
AcDbBlockEnd
  0
BLOCK
  5
1140
100
AcDbEntity
  8
0
100
AcDbBlockBegin
  2
*D33
 70
     1
 10
0.0
 20
0.0
 30
0.0
  3
*D33
  1

  0
LINE
  5
1141
100
AcDbEntity
  8
0
  6
BYBLOCK
 62
     1
100
AcDbLine
 10
-357.410625
 20
-237.846838
 30
0.0
 11
-357.410625
 21
-295.153162
 31
0.0
  0
MTEXT
  5
1142
100
AcDbEntity
  8
0
  6
BYBLOCK
 62
     1
100
AcDbMText
 10
-756.624258
 20
-224.767286
 30
0.0
 40
50.0
 41
0.0
 71
     5
 72
     1
  1
\A1;\U+2205130
  7
ROMANS
 11
0.0
 21
-1.0
 31
0.0
  0
INSERT
  5
1143
100
AcDbEntity
  8
0
  6
BYBLOCK
 62
     1
100
AcDbBlockReference
  2
_OBLIQUE
 10
-357.410625
 20
-237.846838
 30
0.0
 41
2.0
 42
2.0
 43
2.0
 50
90.0
  0
INSERT
  5
1144
100
AcDbEntity
  8
0
  6
BYBLOCK
 62
     1
100
AcDbBlockReference
  2
_OBLIQUE
 10
-357.410625
 20
-295.153162
 30
0.0
 41
2.0
 42
2.0
 43
2.0
 50
270.0
  0
POINT
  5
1145
100
AcDbEntity
  8
DEFPOINTS
  6
BYBLOCK
 62
     0
100
AcDbPoint
 10
-357.410625
 20
-295.153162
 30
-17.574637
 50
90.0
  0
POINT
  5
1146
100
AcDbEntity
  8
DEFPOINTS
  6
BYBLOCK
 62
     0
100
AcDbPoint
 10
-357.410625
 20
-237.846838
 30
-134.225982
 50
90.0
  0
ENDBLK
  5
1147
100
AcDbEntity
  8
0
100
AcDbBlockEnd
  0
BLOCK
  5
117F
100
AcDbEntity
  8
0
100
AcDbBlockBegin
  2
*D34
 70
     1
 10
0.0
 20
0.0
 30
0.0
  3
*D34
  1

  0
LINE
  5
1180
100
AcDbEntity
  8
0
  6
BYBLOCK
 62
     1
100
AcDbLine
 10
17.547901
 20
-89.124821
 30
0.0
 11
-17.547901
 21
89.124821
 31
0.0
  0
MTEXT
  5
1181
100
AcDbEntity
  8
0
  6
BYBLOCK
 62
     1
100
AcDbMText
 10
-609.679007
 20
179.668523
 30
0.0
 40
50.0
 41
0.0
 71
     5
 72
     1
  1
\A1;\U+2205182
  7
ROMANS
 11
0.193182
 21
-0.981163
 31
0.0
  0
INSERT
  5
1182
100
AcDbEntity
  8
0
  6
BYBLOCK
 62
     1
100
AcDbBlockReference
  2
_OBLIQUE
 10
17.547901
 20
-89.124821
 30
0.0
 41
2.0
 42
2.0
 43
2.0
 50
281.138565
  0
INSERT
  5
1183
100
AcDbEntity
  8
0
  6
BYBLOCK
 62
     1
100
AcDbBlockReference
  2
_OBLIQUE
 10
-17.547901
 20
89.124821
 30
0.0
 41
2.0
 42
2.0
 43
2.0
 50
101.138565
  0
POINT
  5
1184
100
AcDbEntity
  8
DEFPOINTS
  6
BYBLOCK
 62
     0
100
AcDbPoint
 10
-17.547901
 20
89.124821
 30
-10.900309
 50
90.0
  0
POINT
  5
1185
100
AcDbEntity
  8
DEFPOINTS
  6
BYBLOCK
 62
     0
100
AcDbPoint
 10
17.547901
 20
-89.124821
 30
-10.900309
 50
90.0
  0
ENDBLK
  5
1186
100
AcDbEntity
  8
0
100
AcDbBlockEnd
  0
BLOCK
  5
1189
100
AcDbEntity
  8
0
100
AcDbBlockBegin
  2
*D35
 70
     1
 10
0.0
 20
0.0
 30
0.0
  3
*D35
  1

  0
LINE
  5
118A
100
AcDbEntity
  8
0
  6
BYBLOCK
 62
     1
100
AcDbLine
 10
34.587625
 20
-72.065224
 30
0.0
 11
-34.587625
 21
72.065224
 31
0.0
  0
MTEXT
  5
118B
100
AcDbEntity
  8
0
  6
BYBLOCK
 62
     1
100
AcDbMText
 10
-584.123311
 20
133.863962
 30
0.0
 40
50.0
 41
0.0
 71
     5
 72
     1
  1
\A1;\U+2205160
  7
ROMANS
 11
0.432694
 21
-0.901541
 31
0.0
  0
INSERT
  5
118C
100
AcDbEntity
  8
0
  6
BYBLOCK
 62
     1
100
AcDbBlockReference
  2
_OBLIQUE
 10
34.587625
 20
-72.065224
 30
0.0
 41
2.0
 42
2.0
 43
2.0
 50
295.638626
  0
INSERT
  5
118D
100
AcDbEntity
  8
0
  6
BYBLOCK
 62
     1
100
AcDbBlockReference
  2
_OBLIQUE
 10
-34.587625
 20
72.065224
 30
0.0
 41
2.0
 42
2.0
 43
2.0
 50
115.638626
  0
POINT
  5
118E
100
AcDbEntity
  8
DEFPOINTS
  6
BYBLOCK
 62
     0
100
AcDbPoint
 10
-34.587625
 20
72.065224
 30
-9.592272
 50
90.0
  0
POINT
  5
118F
100
AcDbEntity
  8
DEFPOINTS
  6
BYBLOCK
 62
     0
100
AcDbPoint
 10
34.587625
 20
-72.065224
 30
-9.592272
 50
90.0
  0
ENDBLK
  5
1190
100
AcDbEntity
  8
0
100
AcDbBlockEnd
  0
BLOCK
  5
1193
100
AcDbEntity
  8
0
100
AcDbBlockBegin
  2
*D36
 70
     1
 10
0.0
 20
0.0
 30
0.0
  3
*D36
  1

  0
LINE
  5
1194
100
AcDbEntity
  8
0
  6
BYBLOCK
 62
     1
100
AcDbLine
 10
-0.625
 20
0.0
 30
0.0
 11
-725.679638
 21
0.0
 31
0.0
  0
LINE
  5
1195
100
AcDbEntity
  8
0
  6
BYBLOCK
 62
     1
100
AcDbLine
 10
-0.625
 20
-427.314622
 30
0.0
 11
-725.679638
 21
-427.314622
 31
0.0
  0
LINE
  5
1196
100
AcDbEntity
  8
0
  6
BYBLOCK
 62
     1
100
AcDbLine
 10
-724.679638
 20
0.0
 30
0.0
 11
-724.679638
 21
-427.314622
 31
0.0
  0
INSERT
  5
1197
100
AcDbEntity
  8
0
  6
BYBLOCK
 62
     1
100
AcDbBlockReference
  2
_OBLIQUE
 10
-724.679638
 20
0.0
 30
0.0
 41
2.0
 42
2.0
 43
2.0
 50
90.0
  0
INSERT
  5
1198
100
AcDbEntity
  8
0
  6
BYBLOCK
 62
     1
100
AcDbBlockReference
  2
_OBLIQUE
 10
-724.679638
 20
-427.314622
 30
0.0
 41
2.0
 42
2.0
 43
2.0
 50
270.0
  0
MTEXT
  5
1199
100
AcDbEntity
  8
0
  6
BYBLOCK
 62
     1
100
AcDbMText
 10
-699.054638
 20
-213.657311
 30
0.0
 40
50.0
 41
0.0
 71
     5
 72
     1
  1
\A1;427
  7
ROMANS
 11
0.0
 21
-1.0
 31
0.0
  0
POINT
  5
119A
100
AcDbEntity
  8
DEFPOINTS
  6
BYBLOCK
 62
     0
100
AcDbPoint
 10
0.0
 20
0.0
 30
0.0
 50
90.0
  0
POINT
  5
119B
100
AcDbEntity
  8
DEFPOINTS
  6
BYBLOCK
 62
     0
100
AcDbPoint
 10
0.0
 20
-427.314622
 30
13.452347
 50
90.0
  0
POINT
  5
119C
100
AcDbEntity
  8
DEFPOINTS
  6
BYBLOCK
 62
     0
100
AcDbPoint
 10
-724.679638
 20
-427.314622
 30
0.0
 50
90.0
  0
ENDBLK
  5
119D
100
AcDbEntity
  8
0
100
AcDbBlockEnd
  0
BLOCK
  5
11A0
100
AcDbEntity
  8
0
100
AcDbBlockBegin
  2
*D37
 70
     1
 10
0.0
 20
0.0
 30
0.0
  3
*D37
  1

  0
LINE
  5
11A1
100
AcDbEntity
  8
0
  6
BYBLOCK
 62
     1
100
AcDbLine
 10
208.72825
 20
283.44481
 30
0.0
 11
1454.943411
 21
283.44481
 31
0.0
  0
LINE
  5
11A2
100
AcDbEntity
  8
0
  6
BYBLOCK
 62
     1
100
AcDbLine
 10
208.72825
 20
-482.045365
 30
0.0
 11
1454.943411
 21
-482.045365
 31
0.0
  0
LINE
  5
11A3
100
AcDbEntity
  8
0
  6
BYBLOCK
 62
     1
100
AcDbLine
 10
1453.943411
 20
283.44481
 30
0.0
 11
1453.943411
 21
-482.045365
 31
0.0
  0
INSERT
  5
11A4
100
AcDbEntity
  8
0
  6
BYBLOCK
 62
     1
100
AcDbBlockReference
  2
_OBLIQUE
 10
1453.943411
 20
283.44481
 30
0.0
 41
2.0
 42
2.0
 43
2.0
 50
90.0
  0
INSERT
  5
11A5
100
AcDbEntity
  8
0
  6
BYBLOCK
 62
     1
100
AcDbBlockReference
  2
_OBLIQUE
 10
1453.943411
 20
-482.045365
 30
0.0
 41
2.0
 42
2.0
 43
2.0
 50
270.0
  0
MTEXT
  5
11A6
100
AcDbEntity
  8
0
  6
BYBLOCK
 62
     1
100
AcDbMText
 10
1479.568411
 20
-99.300277
 30
0.0
 40
50.0
 41
0.0
 71
     5
 72
     1
  1
\A1;765
  7
ROMANS
 11
0.0
 21
-1.0
 31
0.0
  0
POINT
  5
11A7
100
AcDbEntity
  8
DEFPOINTS
  6
BYBLOCK
 62
     0
100
AcDbPoint
 10
208.10325
 20
283.44481
 30
0.0
 50
90.0
  0
POINT
  5
11A8
100
AcDbEntity
  8
DEFPOINTS
  6
BYBLOCK
 62
     0
100
AcDbPoint
 10
208.10325
 20
-482.045365
 30
0.0
 50
90.0
  0
POINT
  5
11A9
100
AcDbEntity
  8
DEFPOINTS
  6
BYBLOCK
 62
     0
100
AcDbPoint
 10
1453.943411
 20
-482.045365
 30
0.0
 50
90.0
  0
ENDBLK
  5
11AA
100
AcDbEntity
  8
0
100
AcDbBlockEnd
  0
BLOCK
  5
11AD
100
AcDbEntity
  8
0
100
AcDbBlockBegin
  2
*D38
 70
     1
 10
0.0
 20
0.0
 30
0.0
  3
*D38
  1

  0
LINE
  5
11AE
100
AcDbEntity
  8
0
  6
BYBLOCK
 62
     1
100
AcDbLine
 10
-0.625
 20
0.0
 30
0.0
 11
-974.847672
 21
0.0
 31
0.0
  0
LINE
  5
11AF
100
AcDbEntity
  8
0
  6
BYBLOCK
 62
     1
100
AcDbLine
 10
-0.625
 20
283.042069
 30
0.0
 11
-974.847672
 21
283.042069
 31
0.0
  0
LINE
  5
11B0
100
AcDbEntity
  8
0
  6
BYBLOCK
 62
     1
100
AcDbLine
 10
-973.847672
 20
0.0
 30
0.0
 11
-973.847672
 21
283.042069
 31
0.0
  0
INSERT
  5
11B1
100
AcDbEntity
  8
0
  6
BYBLOCK
 62
     1
100
AcDbBlockReference
  2
_OBLIQUE
 10
-973.847672
 20
0.0
 30
0.0
 41
2.0
 42
2.0
 43
2.0
 50
270.0
  0
INSERT
  5
11B2
100
AcDbEntity
  8
0
  6
BYBLOCK
 62
     1
100
AcDbBlockReference
  2
_OBLIQUE
 10
-973.847672
 20
283.042069
 30
0.0
 41
2.0
 42
2.0
 43
2.0
 50
90.0
  0
MTEXT
  5
11B3
100
AcDbEntity
  8
0
  6
BYBLOCK
 62
     1
100
AcDbMText
 10
-948.222672
 20
141.521035
 30
0.0
 40
50.0
 41
0.0
 71
     5
 72
     1
  1
\A1;283
  7
ROMANS
 11
0.0
 21
-1.0
 31
0.0
  0
POINT
  5
11B4
100
AcDbEntity
  8
DEFPOINTS
  6
BYBLOCK
 62
     0
100
AcDbPoint
 10
0.0
 20
0.0
 30
0.0
 50
90.0
  0
POINT
  5
11B5
100
AcDbEntity
  8
DEFPOINTS
  6
BYBLOCK
 62
     0
100
AcDbPoint
 10
0.0
 20
283.042069
 30
0.0
 50
90.0
  0
POINT
  5
11B6
100
AcDbEntity
  8
DEFPOINTS
  6
BYBLOCK
 62
     0
100
AcDbPoint
 10
-973.847672
 20
283.042069
 30
0.0
 50
90.0
  0
ENDBLK
  5
11B7
100
AcDbEntity
  8
0
100
AcDbBlockEnd
  0
ENDSEC
  0
SECTION
  2
ENTITIES
  0
INSERT
  5
11F0
100
AcDbEntity
  8
VZ1
  6
CONTINUOUS
100
AcDbBlockReference
  2
A
 10
0.0
 20
0.0
 30
0.0
  0
ENDSEC
  0
SECTION
  2
OBJECTS
  0
DICTIONARY
  5
81F
100
AcDbDictionary
  3
ACAD_GROUP
350
820
  3
ACAD_MLINESTYLE
350
82D
  3
ACDBVARIABLEDICTIONARY
350
83F
  0
DICTIONARY
  5
820
102
{ACAD_REACTORS
330
81F
102
}
100
AcDbDictionary
  0
DICTIONARY
  5
82D
102
{ACAD_REACTORS
330
81F
102
}
100
AcDbDictionary
  3
STANDARD
350
82E
  0
DICTIONARY
  5
83F
102
{ACAD_REACTORS
330
81F
102
}
100
AcDbDictionary
  3
DIMADEC
350
840
  0
MLINESTYLE
  5
82E
102
{ACAD_REACTORS
330
82D
102
}
100
AcDbMlineStyle
  2
STANDARD
 70
     0
  3

 62
   256
 51
90.0
 52
90.0
 71
     2
 49
0.5
 62
   256
  6
BYLAYER
 49
-0.5
 62
   256
  6
BYLAYER
  0
DICTIONARYVAR
  5
840
102
{ACAD_REACTORS
330
83F
102
}
100
DictionaryVariables
280
     0
  1
0
  0
ENDSEC
  0
EOF
