  0
SECTION
  2
HEADER
  9
$ACADVER
  1
AC1015
  9
$ACADMAINTVER
 70
    20
  9
$DWGCODEPAGE
  3
ANSI_1250
  9
$INSBASE
 10
0.0
 20
0.0
 30
0.0
  9
$EXTMIN
 10
0.0
 20
-517.2600246346304
 30
91.5731872794319
  9
$EXTMAX
 10
176.0
 20
-275.9994047324394
 30
322.4025362088317
  9
$LIMMIN
 10
0.0
 20
0.0
  9
$LIMMAX
 10
420.0
 20
297.0
  9
$ORTHOMODE
 70
     0
  9
$REGENMODE
 70
     1
  9
$FILLMODE
 70
     1
  9
$QTEXTMODE
 70
     0
  9
$MIRRTEXT
 70
     0
  9
$LTSCALE
 40
1.0
  9
$ATTMODE
 70
     1
  9
$TEXTSIZE
 40
2.5
  9
$TRACEWID
 40
1.0
  9
$TEXTSTYLE
  7
Standard
  9
$CLAYER
  8
V0-OBRYS
  9
$CELTYPE
  6
ByLayer
  9
$CECOLOR
 62
   256
  9
$CELTSCALE
 40
1.0
  9
$DISPSILH
 70
     0
  9
$DIMSCALE
 40
1.0
  9
$DIMASZ
 40
2.5
  9
$DIMEXO
 40
0.625
  9
$DIMDLI
 40
3.75
  9
$DIMRND
 40
0.0
  9
$DIMDLE
 40
0.0
  9
$DIMEXE
 40
1.25
  9
$DIMTP
 40
0.0
  9
$DIMTM
 40
0.0
  9
$DIMTXT
 40
2.5
  9
$DIMCEN
 40
2.5
  9
$DIMTSZ
 40
0.0
  9
$DIMTOL
 70
     0
  9
$DIMLIM
 70
     0
  9
$DIMTIH
 70
     0
  9
$DIMTOH
 70
     0
  9
$DIMSE1
 70
     0
  9
$DIMSE2
 70
     0
  9
$DIMTAD
 70
     1
  9
$DIMZIN
 70
     8
  9
$DIMBLK
  1

  9
$DIMASO
 70
     1
  9
$DIMSHO
 70
     1
  9
$DIMPOST
  1

  9
$DIMAPOST
  1

  9
$DIMALT
 70
     0
  9
$DIMALTD
 70
     3
  9
$DIMALTF
 40
0.03937007874016
  9
$DIMLFAC
 40
1.0
  9
$DIMTOFL
 70
     1
  9
$DIMTVP
 40
0.0
  9
$DIMTIX
 70
     0
  9
$DIMSOXD
 70
     0
  9
$DIMSAH
 70
     0
  9
$DIMBLK1
  1

  9
$DIMBLK2
  1

  9
$DIMSTYLE
  2
ISO-25
  9
$DIMCLRD
 70
     0
  9
$DIMCLRE
 70
     0
  9
$DIMCLRT
 70
     0
  9
$DIMTFAC
 40
1.0
  9
$DIMGAP
 40
0.625
  9
$DIMJUST
 70
     0
  9
$DIMSD1
 70
     0
  9
$DIMSD2
 70
     0
  9
$DIMTOLJ
 70
     0
  9
$DIMTZIN
 70
     8
  9
$DIMALTZ
 70
     0
  9
$DIMALTTZ
 70
     0
  9
$DIMUPT
 70
     0
  9
$DIMDEC
 70
     2
  9
$DIMTDEC
 70
     2
  9
$DIMALTU
 70
     2
  9
$DIMALTTD
 70
     3
  9
$DIMTXSTY
  7
Standard
  9
$DIMAUNIT
 70
     0
  9
$DIMADEC
 70
     0
  9
$DIMALTRND
 40
0.0
  9
$DIMAZIN
 70
     0
  9
$DIMDSEP
 70
    44
  9
$DIMATFIT
 70
     3
  9
$DIMFRAC
 70
     0
  9
$DIMLDRBLK
  1

  9
$DIMLUNIT
 70
     2
  9
$DIMLWD
 70
    -2
  9
$DIMLWE
 70
    -2
  9
$DIMTMOVE
 70
     0
  9
$LUNITS
 70
     2
  9
$LUPREC
 70
     4
  9
$SKETCHINC
 40
1.0
  9
$FILLETRAD
 40
0.0
  9
$AUNITS
 70
     0
  9
$AUPREC
 70
     0
  9
$MENU
  1
.
  9
$ELEVATION
 40
0.0
  9
$PELEVATION
 40
0.0
  9
$THICKNESS
 40
0.0
  9
$LIMCHECK
 70
     0
  9
$CHAMFERA
 40
0.0
  9
$CHAMFERB
 40
0.0
  9
$CHAMFERC
 40
0.0
  9
$CHAMFERD
 40
0.0
  9
$SKPOLY
 70
     0
  9
$TDCREATE
 40
2454034.845179572
  9
$TDUCREATE
 40
2454034.803512906
  9
$TDUPDATE
 40
2454042.003489584
  9
$TDUUPDATE
 40
2454041.961822917
  9
$TDINDWG
 40
0.0574023495
  9
$TDUSRTIMER
 40
0.0574018056
  9
$USRTIMER
 70
     1
  9
$ANGBASE
 50
0.0
  9
$ANGDIR
 70
     0
  9
$PDMODE
 70
     0
  9
$PDSIZE
 40
0.0
  9
$PLINEWID
 40
0.0
  9
$SPLFRAME
 70
     0
  9
$SPLINETYPE
 70
     6
  9
$SPLINESEGS
 70
     8
  9
$HANDSEED
  5
AC5
  9
$SURFTAB1
 70
     6
  9
$SURFTAB2
 70
     6
  9
$SURFTYPE
 70
     6
  9
$SURFU
 70
     6
  9
$SURFV
 70
     6
  9
$UCSBASE
  2

  9
$UCSNAME
  2

  9
$UCSORG
 10
0.0
 20
0.0
 30
0.0
  9
$UCSXDIR
 10
0.0
 20
1.0
 30
0.0
  9
$UCSYDIR
 10
0.0
 20
0.0
 30
1.0
  9
$UCSORTHOREF
  2

  9
$UCSORTHOVIEW
 70
     6
  9
$UCSORGTOP
 10
0.0
 20
0.0
 30
0.0
  9
$UCSORGBOTTOM
 10
0.0
 20
0.0
 30
0.0
  9
$UCSORGLEFT
 10
0.0
 20
0.0
 30
0.0
  9
$UCSORGRIGHT
 10
0.0
 20
0.0
 30
0.0
  9
$UCSORGFRONT
 10
0.0
 20
0.0
 30
0.0
  9
$UCSORGBACK
 10
0.0
 20
0.0
 30
0.0
  9
$PUCSBASE
  2

  9
$PUCSNAME
  2

  9
$PUCSORG
 10
0.0
 20
0.0
 30
0.0
  9
$PUCSXDIR
 10
1.0
 20
0.0
 30
0.0
  9
$PUCSYDIR
 10
0.0
 20
1.0
 30
0.0
  9
$PUCSORTHOREF
  2

  9
$PUCSORTHOVIEW
 70
     0
  9
$PUCSORGTOP
 10
0.0
 20
0.0
 30
0.0
  9
$PUCSORGBOTTOM
 10
0.0
 20
0.0
 30
0.0
  9
$PUCSORGLEFT
 10
0.0
 20
0.0
 30
0.0
  9
$PUCSORGRIGHT
 10
0.0
 20
0.0
 30
0.0
  9
$PUCSORGFRONT
 10
0.0
 20
0.0
 30
0.0
  9
$PUCSORGBACK
 10
0.0
 20
0.0
 30
0.0
  9
$USERI1
 70
     0
  9
$USERI2
 70
     0
  9
$USERI3
 70
     0
  9
$USERI4
 70
     0
  9
$USERI5
 70
     0
  9
$USERR1
 40
0.0
  9
$USERR2
 40
0.0
  9
$USERR3
 40
0.0
  9
$USERR4
 40
0.0
  9
$USERR5
 40
0.0
  9
$WORLDVIEW
 70
     1
  9
$SHADEDGE
 70
     3
  9
$SHADEDIF
 70
    70
  9
$TILEMODE
 70
     1
  9
$MAXACTVP
 70
    64
  9
$PINSBASE
 10
0.0
 20
0.0
 30
0.0
  9
$PLIMCHECK
 70
     0
  9
$PEXTMIN
 10
0.0
 20
0.0
 30
0.0
  9
$PEXTMAX
 10
0.0
 20
0.0
 30
0.0
  9
$PLIMMIN
 10
0.0
 20
0.0
  9
$PLIMMAX
 10
12.0
 20
9.0
  9
$UNITMODE
 70
     0
  9
$VISRETAIN
 70
     1
  9
$PLINEGEN
 70
     0
  9
$PSLTSCALE
 70
     1
  9
$TREEDEPTH
 70
  3020
  9
$CMLSTYLE
  2
Standard
  9
$CMLJUST
 70
     0
  9
$CMLSCALE
 40
20.0
  9
$PROXYGRAPHICS
 70
     1
  9
$MEASUREMENT
 70
     1
  9
$CELWEIGHT
370
    -1
  9
$ENDCAPS
280
     0
  9
$JOINSTYLE
280
     0
  9
$LWDISPLAY
290
     0
  9
$INSUNITS
 70
     4
  9
$HYPERLINKBASE
  1

  9
$STYLESHEET
  1

  9
$XEDIT
290
     1
  9
$CEPSNTYPE
380
     0
  9
$PSTYLEMODE
290
     1
  9
$FINGERPRINTGUID
  2
{06CDF6CD-0D1F-48AF-9B0D-014D43B35004}
  9
$VERSIONGUID
  2
{19874265-2D76-4F12-BA4B-445BC8D69C54}
  9
$EXTNAMES
290
     1
  9
$PSVPSCALE
 40
0.0
  9
$OLESTARTUP
290
     0
  0
ENDSEC
  0
SECTION
  2
CLASSES
  0
CLASS
  1
ACDBDICTIONARYWDFLT
  2
AcDbDictionaryWithDefault
  3
ObjectDBX Classes
 90
        0
280
     0
281
     0
  0
CLASS
  1
ACDBPLACEHOLDER
  2
AcDbPlaceHolder
  3
ObjectDBX Classes
 90
        0
280
     0
281
     0
  0
CLASS
  1
LAYOUT
  2
AcDbLayout
  3
ObjectDBX Classes
 90
        0
280
     0
281
     0
  0
CLASS
  1
DICTIONARYVAR
  2
AcDbDictionaryVar
  3
ObjectDBX Classes
 90
        0
280
     0
281
     0
  0
CLASS
  1
TABLESTYLE
  2
AcDbTableStyle
  3
ObjectDBX Classes
 90
     2047
280
     0
281
     0
  0
CLASS
  1
DIMASSOC
  2
AcDbDimAssoc
  3
"AcDbDimAssoc|Product Desc:     AcDim ARX App For Dimension|Company:          Autodesk, Inc.|WEB Address:      www.autodesk.com"
 90
    32768
280
     0
281
     0
  0
CLASS
  1
SORTENTSTABLE
  2
AcDbSortentsTable
  3
ObjectDBX Classes
 90
        0
280
     0
281
     0
  0
ENDSEC
  0
SECTION
  2
TABLES
  0
TABLE
  2
VPORT
  5
8
330
0
100
AcDbSymbolTable
 70
     3
  0
VPORT
  5
ABC
330
8
100
AcDbSymbolTableRecord
100
AcDbViewportTableRecord
  2
*Active
 70
     0
 10
0.0
 20
0.0
 11
1.0
 21
1.0
 12
-217.6372023956266
 22
34.75055856258348
 13
0.0
 23
0.0
 14
10.0
 24
10.0
 15
10.0
 25
10.0
 16
1.0
 26
-1.0
 36
1.0
 17
0.0
 27
0.0
 37
0.0
 40
428.3999411206703
 41
2.293497363796133
 42
50.0
 43
0.0
 44
0.0
 50
0.0
 51
0.0
 71
     0
 72
  1000
 73
     1
 74
     3
 75
     0
 76
     0
 77
     0
 78
     0
281
     0
 65
     1
110
0.0
120
0.0
130
0.0
111
0.0
121
1.0
131
0.0
112
0.0
122
0.0
132
1.0
 79
     6
146
0.0
  0
ENDTAB
  0
TABLE
  2
LTYPE
  5
5
330
0
100
AcDbSymbolTable
 70
     1
  0
LTYPE
  5
14
330
5
100
AcDbSymbolTableRecord
100
AcDbLinetypeTableRecord
  2
ByBlock
 70
     0
  3

 72
    65
 73
     0
 40
0.0
  0
LTYPE
  5
15
330
5
100
AcDbSymbolTableRecord
100
AcDbLinetypeTableRecord
  2
ByLayer
 70
     0
  3

 72
    65
 73
     0
 40
0.0
  0
LTYPE
  5
16
330
5
100
AcDbSymbolTableRecord
100
AcDbLinetypeTableRecord
  2
Continuous
 70
     0
  3
Solid line
 72
    65
 73
     0
 40
0.0
  0
ENDTAB
  0
TABLE
  2
LAYER
  5
2
330
0
100
AcDbSymbolTable
 70
     4
  0
LAYER
  5
10
330
2
100
AcDbSymbolTableRecord
100
AcDbLayerTableRecord
  2
0
 70
     0
 62
     7
  6
Continuous
370
    -3
390
F
  0
LAYER
  5
E7
330
2
100
AcDbSymbolTableRecord
100
AcDbLayerTableRecord
  2
Defpoints
 70
     0
 62
     7
  6
Continuous
290
     0
370
    -3
390
F
  0
LAYER
  5
32A
330
2
100
AcDbSymbolTableRecord
100
AcDbLayerTableRecord
  2
V0-OBRYS
 70
     0
 62
    90
  6
Continuous
370
    -3
390
F
  0
LAYER
  5
9EF
330
2
100
AcDbSymbolTableRecord
100
AcDbLayerTableRecord
  2
popis
 70
     0
 62
   210
  6
Continuous
370
    -3
390
F
  0
ENDTAB
  0
TABLE
  2
STYLE
  5
3
330
0
100
AcDbSymbolTable
 70
     2
  0
STYLE
  5
11
330
3
100
AcDbSymbolTableRecord
100
AcDbTextStyleTableRecord
  2
Standard
 70
     0
 40
0.0
 41
1.0
 50
0.0
 71
     0
 42
2.5
  3
txt
  4

  0
STYLE
  5
32B
330
3
100
AcDbSymbolTableRecord
100
AcDbTextStyleTableRecord
  2
ED20
 70
     0
 40
20.0
 41
1.0
 50
0.0
 71
     0
 42
20.0
  3
isocp.shx
  4

  0
ENDTAB
  0
TABLE
  2
VIEW
  5
6
330
0
100
AcDbSymbolTable
 70
     0
  0
ENDTAB
  0
TABLE
  2
UCS
  5
7
330
0
100
AcDbSymbolTable
 70
     0
  0
ENDTAB
  0
TABLE
  2
APPID
  5
9
330
0
100
AcDbSymbolTable
 70
     9
  0
APPID
  5
12
330
9
100
AcDbSymbolTableRecord
100
AcDbRegAppTableRecord
  2
ACAD
 70
     0
  0
APPID
  5
9E
330
9
100
AcDbSymbolTableRecord
100
AcDbRegAppTableRecord
  2
ACAD_PSEXT
 70
     0
  0
APPID
  5
11B
330
9
100
AcDbSymbolTableRecord
100
AcDbRegAppTableRecord
  2
ACAD_EXEMPT_FROM_CAD_STANDARDS
 70
     0
  0
APPID
  5
123
330
9
100
AcDbSymbolTableRecord
100
AcDbRegAppTableRecord
  2
ACAD_DSTYLE_DIMTEXT_FILL
 70
     0
  0
APPID
  5
124
330
9
100
AcDbSymbolTableRecord
100
AcDbRegAppTableRecord
  2
ACAD_DSTYLE_DIMEXT_LENGTH
 70
     0
  0
APPID
  5
125
330
9
100
AcDbSymbolTableRecord
100
AcDbRegAppTableRecord
  2
ACAD_DSTYLE_DIMEXT_ENABLED
 70
     0
  0
APPID
  5
126
330
9
100
AcDbSymbolTableRecord
100
AcDbRegAppTableRecord
  2
ACAD_DSTYLE_DIM_LINETYPE
 70
     0
  0
APPID
  5
127
330
9
100
AcDbSymbolTableRecord
100
AcDbRegAppTableRecord
  2
ACAD_DSTYLE_DIM_EXT1_LINETYPE
 70
     0
  0
APPID
  5
128
330
9
100
AcDbSymbolTableRecord
100
AcDbRegAppTableRecord
  2
ACAD_DSTYLE_DIM_EXT2_LINETYPE
 70
     0
  0
ENDTAB
  0
TABLE
  2
DIMSTYLE
  5
A
330
0
100
AcDbSymbolTable
 70
     2
100
AcDbDimStyleTable
 71
     1
340
27
  0
DIMSTYLE
105
27
330
A
100
AcDbSymbolTableRecord
100
AcDbDimStyleTableRecord
  2
ISO-25
 70
     0
 41
2.5
 42
0.625
 43
3.75
 44
1.25
 73
     0
 74
     0
 77
     1
 78
     8
140
2.5
141
2.5
143
0.03937007874016
147
0.625
171
     3
172
     1
271
     2
272
     2
274
     3
278
    44
283
     0
284
     8
340
11
  0
DIMSTYLE
105
32C
330
A
100
AcDbSymbolTableRecord
100
AcDbDimStyleTableRecord
  2
ED20
 70
     0
 40
0.0
 41
20.0
 42
1.0
 43
3.75
 44
1.25
 73
     0
 74
     0
 77
     1
 78
     8
140
20.0
141
3.0
143
0.0394
147
1.5
171
     4
172
     1
173
     1
271
     0
272
     1
273
     8
274
     4
284
     8
340
32B
341
324
343
324
344
324
  0
ENDTAB
  0
TABLE
  2
BLOCK_RECORD
  5
1
330
0
100
AcDbSymbolTable
 70
     5
  0
BLOCK_RECORD
  5
1F
102
{ACAD_XDICTIONARY
360
393
102
}
330
1
100
AcDbSymbolTableRecord
100
AcDbBlockTableRecord
  2
*Model_Space
340
22
  0
BLOCK_RECORD
  5
D2
330
1
100
AcDbSymbolTableRecord
100
AcDbBlockTableRecord
  2
*Paper_Space
340
D3
  0
BLOCK_RECORD
  5
D6
330
1
100
AcDbSymbolTableRecord
100
AcDbBlockTableRecord
  2
*Paper_Space0
340
D7
  0
BLOCK_RECORD
  5
2E9
330
1
100
AcDbSymbolTableRecord
100
AcDbBlockTableRecord
  2
A$C65174C2D
340
0
1001
ACAD
1000
DesignCenter Data
1002
{
1070
     1
1070
     4
1002
}
  0
BLOCK_RECORD
  5
2F1
330
1
100
AcDbSymbolTableRecord
100
AcDbBlockTableRecord
  2
A$C17A95F2C
340
0
1001
ACAD
1000
DesignCenter Data
1002
{
1070
     1
1070
     4
1002
}
  0
BLOCK_RECORD
  5
324
330
1
100
AcDbSymbolTableRecord
100
AcDbBlockTableRecord
  2
_OPEN
340
0
  0
BLOCK_RECORD
  5
3FF
102
{ACAD_XDICTIONARY
360
415
102
}
330
1
100
AcDbSymbolTableRecord
100
AcDbBlockTableRecord
  2
A$C5C59711D
340
0
1001
ACAD
1000
DesignCenter Data
1002
{
1070
     1
1070
     0
1002
}
  0
ENDTAB
  0
ENDSEC
  0
SECTION
  2
BLOCKS
  0
BLOCK
  5
20
330
1F
100
AcDbEntity
  8
0
100
AcDbBlockBegin
  2
*Model_Space
 70
     0
 10
0.0
 20
0.0
 30
0.0
  3
*Model_Space
  1

  0
ENDBLK
  5
21
330
1F
100
AcDbEntity
  8
0
100
AcDbBlockEnd
  0
BLOCK
  5
D4
330
D2
100
AcDbEntity
 67
     1
  8
0
100
AcDbBlockBegin
  2
*Paper_Space
 70
     0
 10
0.0
 20
0.0
 30
0.0
  3
*Paper_Space
  1

  0
ENDBLK
  5
D5
330
D2
100
AcDbEntity
 67
     1
  8
0
100
AcDbBlockEnd
  0
BLOCK
  5
D8
330
D6
100
AcDbEntity
 67
     1
  8
0
100
AcDbBlockBegin
  2
*Paper_Space0
 70
     0
 10
0.0
 20
0.0
 30
0.0
  3
*Paper_Space0
  1

  0
ENDBLK
  5
D9
330
D6
100
AcDbEntity
 67
     1
  8
0
100
AcDbBlockEnd
  0
BLOCK
  5
2EB
330
2E9
100
AcDbEntity
  8
0
100
AcDbBlockBegin
  2
A$C65174C2D
 70
     0
 10
0.0
 20
0.0
 30
0.0
  3
A$C65174C2D
  1

  0
LWPOLYLINE
  5
2EA
330
2E9
100
AcDbEntity
  8
0
100
AcDbPolyline
 90
        5
 70
     0
 43
0.0
 38
-114.0000024949029
 10
-0.0000005141058637
 20
-114.0
 10
-0.0000005141058637
 20
114.0
 10
-423.0000005141056
 20
114.0
 10
-423.0000005141056
 20
-114.0
 10
-0.0000005141058637
 20
-114.0
210
-1.0
220
0.0
230
0.0
  0
ENDBLK
  5
2EC
330
2E9
100
AcDbEntity
  8
0
100
AcDbBlockEnd
  0
BLOCK
  5
2F3
330
2F1
100
AcDbEntity
  8
0
100
AcDbBlockBegin
  2
A$C17A95F2C
 70
     0
 10
0.0
 20
0.0
 30
0.0
  3
A$C17A95F2C
  1

  0
LWPOLYLINE
  5
2F2
330
2F1
100
AcDbEntity
  8
0
100
AcDbPolyline
 90
        5
 70
     0
 43
0.0
 38
-114.0000024949029
 10
-0.0000005141058637
 20
-114.0
 10
-0.0000005141058637
 20
114.0
 10
-423.0000005141056
 20
114.0
 10
-423.0000005141056
 20
-114.0
 10
-0.0000005141058637
 20
-114.0
210
-1.0
220
0.0
230
0.0
  0
ENDBLK
  5
2F4
330
2F1
100
AcDbEntity
  8
0
100
AcDbBlockEnd
  0
BLOCK
  5
325
330
324
100
AcDbEntity
  8
0
100
AcDbBlockBegin
  2
_OPEN
 70
     0
 10
0.0
 20
0.0
 30
0.0
  3
_OPEN
  1

  0
LINE
  5
326
330
324
100
AcDbEntity
  8
0
  6
ByBlock
 62
     0
100
AcDbLine
 10
-1.0
 20
0.1666666666666666
 30
0.0
 11
0.0
 21
0.0
 31
0.0
  0
LINE
  5
327
330
324
100
AcDbEntity
  8
0
  6
ByBlock
 62
     0
100
AcDbLine
 10
0.0
 20
0.0
 30
0.0
 11
-1.0
 21
-0.1666666666666666
 31
0.0
  0
LINE
  5
328
330
324
100
AcDbEntity
  8
0
  6
ByBlock
 62
     0
100
AcDbLine
 10
0.0
 20
0.0
 30
0.0
 11
-1.0
 21
0.0
 31
0.0
  0
ENDBLK
  5
329
330
324
100
AcDbEntity
  8
0
100
AcDbBlockEnd
  0
BLOCK
  5
417
330
3FF
100
AcDbEntity
  8
0
100
AcDbBlockBegin
  2
A$C5C59711D
 70
     0
 10
0.0
 20
0.0
 30
0.0
  3
A$C5C59711D
  1

  0
ARC
  5
400
330
3FF
100
AcDbEntity
  8
V0-OBRYS
  6
Continuous
 62
    90
100
AcDbCircle
 10
-467.0930531095073
 20
348.0000002503987
 30
0.0
 40
164.0
100
AcDbArc
 50
90.0
 51
270.0
  0
LINE
  5
401
330
3FF
100
AcDbEntity
  8
V0-OBRYS
  6
Continuous
 62
    90
100
AcDbLine
 10
-467.0930531095073
 20
184.0000002503986
 30
0.0
 11
-322.0930531095074
 21
184.0000002503986
 31
0.0
  0
LINE
  5
402
330
3FF
100
AcDbEntity
  8
V0-OBRYS
  6
Continuous
 62
    90
100
AcDbLine
 10
-322.0930531095074
 20
184.0000002503986
 30
0.0
 11
-322.0930531095073
 21
348.0000002503987
 31
0.0
  0
LINE
  5
403
330
3FF
100
AcDbEntity
  8
V0-OBRYS
  6
Continuous
 62
    90
100
AcDbLine
 10
-322.0930531095073
 20
348.0000002503987
 30
0.0
 11
-322.0930531095073
 21
368.0000002503987
 31
0.0
  0
LINE
  5
404
330
3FF
100
AcDbEntity
  8
V0-OBRYS
  6
Continuous
 62
    90
100
AcDbLine
 10
-322.0930531095073
 20
368.0000002503987
 30
0.0
 11
-340.6632607469037
 21
375.4261290066206
 31
0.0
  0
ARC
  5
405
330
3FF
100
AcDbEntity
  8
V0-OBRYS
  6
Continuous
 62
    90
100
AcDbCircle
 10
-468.143597461387
 20
384.2209653806341
 30
0.0
 40
127.7833533590497
100
AcDbArc
 50
356.0534319940651
 51
89.52894931891277
  0
CIRCLE
  5
406
330
3FF
100
AcDbEntity
  8
V0-OBRYS
  6
Continuous
 62
    90
100
AcDbCircle
 10
-467.0930531095073
 20
348.0000002503987
 30
0.0
 40
107.4846649940139
  0
CIRCLE
  5
407
330
3FF
100
AcDbEntity
  8
V0-OBRYS
  6
Continuous
 62
    90
100
AcDbCircle
 10
-467.0930531095073
 20
348.0000002503987
 30
0.0
 40
93.1969975799039
  0
CIRCLE
  5
408
330
3FF
100
AcDbEntity
  8
V0-OBRYS
  6
Continuous
 62
    90
100
AcDbCircle
 10
-467.0930531095073
 20
348.0000002503987
 30
0.0
 40
22.4782050882451
  0
LINE
  5
409
330
3FF
100
AcDbEntity
  8
V0-OBRYS
  6
Continuous
 62
    90
100
AcDbLine
 10
-467.0930531095073
 20
325.5217951621536
 30
0.0
 11
-467.0930531095073
 21
291.108939200919
 31
0.0
  0
LINE
  5
40A
330
3FF
100
AcDbEntity
  8
V0-OBRYS
  6
Continuous
 62
    90
100
AcDbLine
 10
-472.0930531095071
 20
283.0185652092692
 30
0.0
 11
-472.0930531095071
 21
240.5153352563848
 31
0.0
  0
LINE
  5
40B
330
3FF
100
AcDbEntity
  8
V0-OBRYS
  6
Continuous
 62
    90
100
AcDbLine
 10
-462.0930531095073
 20
325.5217951621536
 30
0.0
 11
-462.0930531095073
 21
240.5153352563848
 31
0.0
  0
ARC
  5
40C
330
3FF
100
AcDbEntity
  8
V0-OBRYS
  6
Continuous
 62
    90
100
AcDbCircle
 10
-457.7641142063687
 20
279.7532502954497
 30
0.0
 40
14.69628427788079
100
AcDbArc
 50
129.4038286720689
 51
167.1625150158241
  0
LINE
  5
40D
330
3FF
100
AcDbEntity
  8
V0-OBRYS
  6
Continuous
 62
    90
100
AcDbLine
 10
-447.62635647161
 20
359.2391027945212
 30
0.0
 11
-417.8239489924061
 21
376.4455307751386
 31
0.0
  0
LINE
  5
40E
330
3FF
100
AcDbEntity
  8
V0-OBRYS
  6
Continuous
 62
    90
100
AcDbLine
 10
-408.3174795895206
 20
376.1605907520412
 30
0.0
 11
-371.5086027074311
 21
397.4122057284834
 31
0.0
  0
LINE
  5
40F
330
3FF
100
AcDbEntity
  8
V0-OBRYS
  6
Continuous
 62
    90
100
AcDbLine
 10
-450.1263564716103
 20
363.5692298134434
 30
0.0
 11
-376.5086027074311
 21
406.0724597663275
 31
0.0
  0
ARC
  5
410
330
3FF
100
AcDbEntity
  8
V0-OBRYS
  6
Continuous
 62
    90
100
AcDbCircle
 10
-412.6541033743658
 20
390.202473308344
 30
0.0
 40
14.69628427788079
100
AcDbArc
 50
249.4038286720695
 51
287.1625150158262
  0
LINE
  5
411
330
3FF
100
AcDbEntity
  8
V0-OBRYS
  6
Continuous
 62
    90
100
AcDbLine
 10
-486.5597497474039
 20
359.2391027945214
 30
0.0
 11
-516.3621572266078
 21
376.4455307751388
 31
0.0
  0
LINE
  5
412
330
3FF
100
AcDbEntity
  8
V0-OBRYS
  6
Continuous
 62
    90
100
AcDbLine
 10
-520.8686266294935
 20
384.8208447898858
 30
0.0
 11
-557.6775035115831
 21
406.072459766328
 31
0.0
  0
LINE
  5
413
330
3FF
100
AcDbEntity
  8
V0-OBRYS
  6
Continuous
 62
    90
100
AcDbLine
 10
-489.059749747404
 20
354.9089757755993
 30
0.0
 11
-562.6775035115831
 21
397.4122057284837
 31
0.0
  0
ARC
  5
414
330
3FF
100
AcDbEntity
  8
V0-OBRYS
  6
Continuous
 62
    90
100
AcDbCircle
 10
-530.8609417477867
 20
374.0442771474026
 30
0.0
 40
14.69628427788079
100
AcDbArc
 50
9.403828672067083
 51
47.16251501582351
  0
ENDBLK
  5
418
330
3FF
100
AcDbEntity
  8
0
100
AcDbBlockEnd
  0
ENDSEC
  0
SECTION
  2
ENTITIES
  0
3DSOLID
  5
A9B
330
1F
100
AcDbEntity
  8
0
 62
     0
100
AcDbModelerGeometry
 70
     1
  1
koo nok n o         
  1
ni ^ *+0;:,4 ^ *+0\^ [ nh ^ LR iqoqjqhook QK mk K7* Q0) om ooeojeon mooi 
  1
n fqfffffffffffffffj:rooh n:rono 
  1
=0;& {rn {n {rn {rn |
  1
3*2/ {rn {rn {m {o |
  1
,7:33 {rn {rn {rn {l {rn {n |
  1
9><: {rn {k {j {m {rn {i 90-(>-; ,6183: |
  1
9><: {rn {h {g {m {rn {f 90-(>-; ,6183: |
  1
300/ {rn {rn {no {l |
  1
/3>1:r,*-9><: {rn o rmflqmioomkilkilolg mmgqkomjlimogglnil o nqnnfjkomghfognffi:ronk rn rn o o 90-(>-;@) V V V V |
  1
9><: {rn {nn {nm {m {rn {nl 90-(>-; ,6183: |
  1
300/ {rn {rn {nk {k |
  1
<01:r,*-9><: {rn o rkooqjkhoonoooiljkm nfjqfofhkglgifgoml n o o o hgqlogomjkofiohmig rjgqmgffglkghjlhkmh n V V o n fhqimnokgolomhknn 90-(>-; V V V V |
  1
<0:;8: {rn {nj {ni {nh {ng 90-(>-; {j {rn |
  1
9><: {rn {nf {mo {m {rn {mn 90-(>-; ,6183: |
  1
300/ {rn {rn {mm {h |
  1
<01:r,*-9><: {rn o rkojqmioomkilkiloll mnoqkomjlimogglnil n o o o rnnm o n V V o n nnm 90-(>-; V V V V |
  1
<0:;8: {rn {ml {mk {mj {mi 90-(>-; {g {rn |
  1
<0:;8: {rn {mh {no {mk {mg -:):-,:; {j {rn |
  1
<0:;8: {rn {no {mh {mf {lo 90-(>-; {j {rn |
  1
<0:;8: {rn {ln {mj {no {ng -:):-,:; {lm {rn |
  1
:;8: {rn {ll {lk {no {lj 90-(>-; |
  1
9><: {rn {li {lh {m {rn {lg 90-(>-; ,6183: |
  1
300/ {rn {rn {lf {nn |
  1
/3>1:r,*-9><: {rn o rkojqmioomkilkiloll lmmqkomjlimogglnil o o n n o o 90-(>-;@) V V V V |
  1
<0:;8: {rn {ko {kn {km {kl 90-(>-; {nm {rn |
  1
<0:;8: {rn {kk {nk {kn {kj -:):-,:; {g {rn |
  1
<0:;8: {rn {nk {kk {nj {mg 90-(>-; {g {rn |
  1
<0:;8: {rn {nh {km {nk {mi -:):-,:; {lm {rn |
  1
:;8: {rn {lk {ki {nk {kh 90-(>-; |
  1
<0:;8: {rn {ni {nj {kg {kf 90-(>-; {j {rn |
  1
:;8: {rn {jo {lk {mk {jn 90-(>-; |
  1
<0:;8: {rn {jm {jl {ni {lo -:):-,:; {lh {rn |
  1
:;8: {rn {jk {ll {ni {jj 90-(>-; |
  1
<0:;8: {rn {ji {nh {jl {jh -:):-,:; {lm {rn |
  1
300/ {rn {rn {nh {li |
  1
):-+:' {rn {lo {jg |
  1
):-+:' {rn {mg {jf |
  1
,+->687+r<*-): {rn nhi rlogqkfmnfmjjkmfojh mmgqkomjlimogglnki o rn rnqnnfjkomghfognffi:ronk V V |
  1
9><: {rn {io {lm {m {rn {in 90-(>-; ,6183: |
  1
300/ {rn {rn {jl {nf |
  1
/3>1:r,*-9><: {rn o rmflqmioomkilkiloll lmmqkomjlimogglnil o n riqokhnhmmnfmlkgfjn:roni o iqokhnhmmnfmlkgfjn:roni n 90-(>-;@) V V V V |
  1
<0:;8: {rn {im {il {ji {ik 90-(>-; {mo {rn |
  1
<0:;8: {rn {ij {mm {il {ii -:):-,:; {nm {rn |
  1
<0:;8: {rn {mm {ij {ml {kj 90-(>-; {nm {rn |
  1
<0:;8: {rn {mj {ji {mm {kl -:):-,:; {lm {rn |
  1
:;8: {rn {ki {ih {mm {ig 90-(>-; |
  1
<0:;8: {rn {mk {ml {if {ho 90-(>-; {g {rn |
  1
:;8: {rn {hn {ki {kn {hm 90-(>-; |
  1
):-+:' {rn {kj {hl |
  1
:336/,:r<*-): {rn nhi rkooqjkhoonoooiljkm nfjqfofhkglgifgoml rn o o o hgqlogomjkofiohmig rjgqmgffglkghjlhkmh n V V |
  1
<0:;8: {rn {if {hk {mh {kf -:):-,:; {hj {rn |
  1
:;8: {rn {jo {jk {kg {hi 90-(>-; |
  1
):-+:' {rn {ho {hh |
  1
,+->687+r<*-): {rn o rlogqkfmnfmjjkmfojh mmgqkomjlimogglnki n o o V V |
  1
<0:;8: {rn {hg {mf {hk {hf 90-(>-; {lh {rn |
  1
<0:;8: {rn {mf {hg {ln {jh 90-(>-; {lh {rn |
  1
):-+:' {rn {hf {go |
  1
,+->687+r<*-): {rn o rmflqmioomkilkilolg mmgqkomjlimogglnil n o o V V |
  1
<0:;8: {rn {km {ln {lf {ik -:):-,:; {lm {rn |
  1
:;8: {rn {gn {ll {jl {gm 90-(>-; |
  1
/061+ {rn nhi rmflqmioomkilkilolg mmgqkomjlimogglnil |
  1
/061+ {rn nhi rlogqkfmnfmjjkmfojh mmgqkomjlimogglnki |
  1
9><: {rn {rn {hj {m {rn {gl -:):-,:; ,6183: |
  1
/3>1:r,*-9><: {rn nhi rlflqjhkiijnlinjflj mnfqioljijjknhmmfl n o o o o rn 90-(>-;@) V V V V |
  1
<0:;8: {rn {gk {lf {hg {gj -:):-,:; {mo {rn |
  1
<0:;8: {rn {lf {gk {ko {ii 90-(>-; {mo {rn |
  1
:;8: {rn {ih {gn {lf {gi 90-(>-; |
  1
<0:;8: {rn {kn {ko {gh {gg 90-(>-; {nm {rn |
  1
:;8: {rn {gf {ih {il {fo 90-(>-; |
  1
):-+:' {rn {ii {fn |
  1
:336/,:r<*-): {rn nhi rkojqmioomkilkiloll mnoqkomjlimogglnil rn o o o rnnm o n V V |
  1
<0:;8: {rn {gh {kg {kk {ho -:):-,:; {hj {rn |
  1
:;8: {rn {hn {jo {if {fm 90-(>-; |
  1
):-+:' {rn {gg {fl |
  1
,+->687+r<*-): {rn o rkojqmioomkilkiloll fgqkomjlimogglnilk n o o V V |
  1
/061+ {rn nhi rkojqmioomkilkiloll fgqkomjlimogglnilk |
  1
<0:;8: {rn {kg {fk {jm {hf -:):-,:; {hj {rn |
  1
300/ {rn {rn {hk {io |
  1
,+->687+r<*-): {rn o rlogqkfmnfmjjkmfojh mmgqkomjlimogglnki o n nqnnfjkomghfognffi:ronk V V |
  1
/061+ {rn o rlogqkfmnfmjjkmfojh mmgqkomjlimogglnki |
  1
<0:;8: {rn {jl {jm {im {gj 90-(>-; {lh {rn |
  1
:;8: {rn {jk {fj {hk {fi 90-(>-; |
  1
/061+ {rn o rmflqmioomkilkilolg mmgqkomjlimogglnil |
  1
):-+:' {rn {gj {fh |
  1
,+->687+r<*-): {rn nhi rmflqmioomkilkilolg mmgqkomjlimogglnil o riqokhnhmmnfmlkgfjn:roni rn V V |
  1
/3>1:r,*-9><: {rn o rlflqjhkiijnlinjflj mnfqioljijjknhmmfl n o o o o rn 90-(>-;@) V V V V |
  1
<0:;8: {rn {il {im {fk {fg 90-(>-; {mo {rn |
  1
:;8: {rn {fj {gn {hg {ff 90-(>-; |
  1
,+->687+r<*-): {rn nhi rmflqmioomkilkiloll lmmqkomjlimogglnil o n o V V |
  1
<0:;8: {rn {fk {if {ij {gg -:):-,:; {hj {rn |
  1
:;8: {rn {gf {hn {gh {noo 90-(>-; |
  1
):-+:' {rn {fg {non |
  1
,+->687+r<*-): {rn o rkojqmioomkilkiloll lmmqkomjlimogglnil n o o V V |
  1
/061+ {rn nhi rkojqmioomkilkiloll lmmqkomjlimogglnil |
  1
:336/,:r<*-): {rn o rkooqjkhoonoooiljkm nfjqfofhkglgifgoml n o o o hgqlogomjkofiohmig rjgqmgffglkghjlhkmh n V V |
  1
/061+ {rn o rkojqmioomkilkiloll fgqkomjlimogglnilk |
  1
<0:;8: {rn {hk {gh {gk {fg -:):-,:; {hj {rn |
  1
):-+:' {rn {hf {nom |
  1
,+->687+r<*-): {rn o rmflqmioomkilkilolg mmgqkomjlimogglnil o iqokhnhmmnfmlkgfjn:roni n V V |
  1
/061+ {rn nhi rmflqmioomkilkiloll lmmqkomjlimogglnil |
  1
:;8: {rn {fj {gf {fk {nol 90-(>-; |
  1
,+->687+r<*-): {rn o rmflqmioomkilkiloll lmmqkomjlimogglnil n o o V V |
  1
:336/,:r<*-): {rn o rkojqmioomkilkiloll mnoqkomjlimogglnil n o o o rnnm o n V V |
  1
/061+ {rn o rkojqmioomkilkiloll lmmqkomjlimogglnil |
  1
/061+ {rn o rmflqmioomkilkiloll lmmqkomjlimogglnil |
  1
,+->687+r<*-): {rn o rmflqmioomkilkiloll lmmqkomjlimogglnil o rn o V V |
  0
ENDSEC
  0
SECTION
  2
OBJECTS
  0
DICTIONARY
  5
C
330
0
100
AcDbDictionary
281
     1
  3
ACAD_COLOR
350
6B
  3
ACAD_GROUP
350
D
  3
ACAD_LAYOUT
350
1A
  3
ACAD_MATERIAL
350
6A
  3
ACAD_MLINESTYLE
350
17
  3
ACAD_PLOTSETTINGS
350
19
  3
ACAD_PLOTSTYLENAME
350
E
  3
ACAD_TABLESTYLE
350
7E
  3
ACDBHEADERROUNDTRIPXREC
350
ABE
  3
AcDbVariableDictionary
350
5E
  3
DWGPROPS
350
ABD
  0
DICTIONARY
  5
393
330
1F
100
AcDbDictionary
280
     1
281
     1
  3
ACAD_SORTENTS
360
394
  0
DICTIONARY
  5
415
330
3FF
100
AcDbDictionary
280
     1
281
     1
  3
ACAD_SORTENTS
360
416
  0
DICTIONARY
  5
6B
102
{ACAD_REACTORS
330
C
102
}
330
C
100
AcDbDictionary
281
     1
  0
DICTIONARY
  5
D
102
{ACAD_REACTORS
330
C
102
}
330
C
100
AcDbDictionary
281
     1
  0
DICTIONARY
  5
1A
102
{ACAD_REACTORS
330
C
102
}
330
C
100
AcDbDictionary
281
     1
  3
Layout1
350
D3
  3
Layout2
350
D7
  3
Model
350
22
  0
DICTIONARY
  5
6A
102
{ACAD_REACTORS
330
C
102
}
330
C
100
AcDbDictionary
281
     1
  0
DICTIONARY
  5
17
102
{ACAD_REACTORS
330
C
102
}
330
C
100
AcDbDictionary
281
     1
  3
Standard
350
18
  0
DICTIONARY
  5
19
102
{ACAD_REACTORS
330
C
102
}
330
C
100
AcDbDictionary
281
     1
  0
ACDBDICTIONARYWDFLT
  5
E
102
{ACAD_REACTORS
330
C
102
}
330
C
100
AcDbDictionary
281
     1
  3
Normal
350
F
100
AcDbDictionaryWithDefault
340
F
  0
DICTIONARY
  5
7E
102
{ACAD_REACTORS
330
C
102
}
330
C
100
AcDbDictionary
281
     1
  3
Standard
350
7F
  0
DICTIONARY
  5
ABE
102
{ACAD_REACTORS
330
C
102
}
330
C
100
AcDbDictionary
281
     1
  0
DICTIONARY
  5
5E
102
{ACAD_REACTORS
330
C
102
}
330
C
100
AcDbDictionary
281
     1
  3
CTABLESTYLE
350
84
  3
DIMASSOC
350
5F
  3
HIDETEXT
350
63
  3
PROJECTNAME
350
379
  0
XRECORD
  5
ABD
102
{ACAD_REACTORS
330
C
102
}
330
C
100
AcDbXrecord
280
     1
  1
DWGPROPS COOKIE
  2

  3

  4

  6

  7

  8
Autodesk
  9

300
=
301
=
302
=
303
=
304
=
305
=
306
=
307
=
308
=
309
=
 40
0.057402349537037
 41
2454034.845179572
 42
2454042.003489584
  1

 90
        0
  0
SORTENTSTABLE
  5
394
102
{ACAD_REACTORS
330
393
102
}
330
393
100
AcDbSortentsTable
330
1F
  0
SORTENTSTABLE
  5
416
102
{ACAD_REACTORS
330
415
102
}
330
415
100
AcDbSortentsTable
330
3FF
  0
LAYOUT
  5
D3
102
{ACAD_XDICTIONARY
360
AC1
102
}
102
{ACAD_REACTORS
330
1A
102
}
330
1A
100
AcDbPlotSettings
  1

  2
C:\Documents and Settings\basas\Application Data\Autodesk\AutoCAD 2005\R16.1\enu\plotters\Default Windows System Printer.pc3
  4

  6

 40
0.0
 41
0.0
 42
0.0
 43
0.0
 44
0.0
 45
0.0
 46
0.0
 47
0.0
 48
0.0
 49
0.0
140
0.0
141
0.0
142
1.0
143
1.0
 70
   688
 72
     0
 73
     0
 74
     5
  7

 75
    16
147
1.0
148
0.0
149
0.0
100
AcDbLayout
  1
Layout1
 70
     1
 71
     1
 10
0.0
 20
0.0
 11
12.0
 21
9.0
 12
0.0
 22
0.0
 32
0.0
 14
0.0
 24
0.0
 34
0.0
 15
0.0
 25
0.0
 35
0.0
146
0.0
 13
0.0
 23
0.0
 33
0.0
 16
1.0
 26
0.0
 36
0.0
 17
0.0
 27
1.0
 37
0.0
 76
     0
330
D2
  0
LAYOUT
  5
D7
102
{ACAD_XDICTIONARY
360
AC3
102
}
102
{ACAD_REACTORS
330
1A
102
}
330
1A
100
AcDbPlotSettings
  1

  2
C:\Documents and Settings\basas\Application Data\Autodesk\AutoCAD 2005\R16.1\enu\plotters\Default Windows System Printer.pc3
  4

  6

 40
0.0
 41
0.0
 42
0.0
 43
0.0
 44
0.0
 45
0.0
 46
0.0
 47
0.0
 48
0.0
 49
0.0
140
0.0
141
0.0
142
1.0
143
1.0
 70
   688
 72
     0
 73
     0
 74
     5
  7

 75
    16
147
1.0
148
0.0
149
0.0
100
AcDbLayout
  1
Layout2
 70
     1
 71
     2
 10
0.0
 20
0.0
 11
12.0
 21
9.0
 12
0.0
 22
0.0
 32
0.0
 14
0.0
 24
0.0
 34
0.0
 15
0.0
 25
0.0
 35
0.0
146
0.0
 13
0.0
 23
0.0
 33
0.0
 16
1.0
 26
0.0
 36
0.0
 17
0.0
 27
1.0
 37
0.0
 76
     0
330
D6
  0
LAYOUT
  5
22
102
{ACAD_XDICTIONARY
360
ABF
102
}
102
{ACAD_REACTORS
330
1A
102
}
330
1A
100
AcDbPlotSettings
  1

  2
none_device
  4
ISO_A4_(210.00_x_297.00_MM)
  6

 40
7.5
 41
20.0
 42
7.5
 43
20.0
 44
210.0
 45
297.0
 46
11.54999923706054
 47
-13.65000009536743
 48
0.0
 49
0.0
140
0.0
141
0.0
142
1.0
143
8.704084754739808
 70
 11952
 72
     1
 73
     0
 74
     0
  7

 75
     0
147
0.1148885871608098
148
0.0
149
0.0
100
AcDbLayout
  1
Model
 70
     1
 71
     0
 10
0.0
 20
0.0
 11
12.0
 21
9.0
 12
0.0
 22
0.0
 32
0.0
 14
0.0
 24
0.0
 34
0.0
 15
0.0
 25
0.0
 35
0.0
146
0.0
 13
0.0
 23
0.0
 33
0.0
 16
1.0
 26
0.0
 36
0.0
 17
0.0
 27
1.0
 37
0.0
 76
     0
330
1F
1001
ACAD_PSEXT
1000
None
1000
None
1000
Not applicable
1000
The layout will not be plotted unless a new plotter configuration name is selected.
1070
     0
  0
MLINESTYLE
  5
18
102
{ACAD_REACTORS
330
17
102
}
330
17
100
AcDbMlineStyle
  2
STANDARD
 70
     0
  3

 62
   256
 51
90.0
 52
90.0
 71
     2
 49
0.5
 62
   256
  6
BYLAYER
 49
-0.5
 62
   256
  6
BYLAYER
  0
ACDBPLACEHOLDER
  5
F
102
{ACAD_REACTORS
330
E
102
}
330
E
  0
TABLESTYLE
  5
7F
102
{ACAD_REACTORS
330
7E
102
}
330
7E
100
AcDbTableStyle
  3
Standard
 70
     0
 71
     0
 40
1.5
 41
1.5
280
     0
281
     0
  7
Standard
140
4.5
170
     2
 62
     0
 63
     7
283
     0
274
    -2
284
     1
 64
     0
275
    -2
285
     1
 65
     0
276
    -2
286
     1
 66
     0
277
    -2
287
     1
 67
     0
278
    -2
288
     1
 68
     0
279
    -2
289
     1
 69
     0
  7
Standard
140
6.0
170
     5
 62
     0
 63
     7
283
     0
274
    -2
284
     1
 64
     0
275
    -2
285
     1
 65
     0
276
    -2
286
     1
 66
     0
277
    -2
287
     1
 67
     0
278
    -2
288
     1
 68
     0
279
    -2
289
     1
 69
     0
  7
Standard
140
4.5
170
     5
 62
     0
 63
     7
283
     0
274
    -2
284
     1
 64
     0
275
    -2
285
     1
 65
     0
276
    -2
286
     1
 66
     0
277
    -2
287
     1
 67
     0
278
    -2
288
     1
 68
     0
279
    -2
289
     1
 69
     0
  0
DICTIONARYVAR
  5
84
102
{ACAD_REACTORS
330
5E
102
}
330
5E
100
DictionaryVariables
280
     0
  1
STANDARD
  0
DICTIONARYVAR
  5
5F
102
{ACAD_REACTORS
330
5E
102
}
330
5E
100
DictionaryVariables
280
     0
  1
2
  0
DICTIONARYVAR
  5
63
102
{ACAD_REACTORS
330
5E
102
}
330
5E
100
DictionaryVariables
280
     0
  1
1
  0
DICTIONARYVAR
  5
379
102
{ACAD_REACTORS
330
5E
102
}
330
5E
100
DictionaryVariables
280
     0
  1

  0
DICTIONARY
  5
AC1
330
D3
100
AcDbDictionary
280
     1
281
     1
  3
ACAD_XREC_ROUNDTRIP
360
AC2
  0
DICTIONARY
  5
AC3
330
D7
100
AcDbDictionary
280
     1
281
     1
  3
ACAD_XREC_ROUNDTRIP
360
AC4
  0
DICTIONARY
  5
ABF
330
22
100
AcDbDictionary
280
     1
281
     1
  3
ACAD_XREC_ROUNDTRIP
360
AC0
  0
XRECORD
  5
AC2
102
{ACAD_REACTORS
330
AC1
102
}
330
AC1
100
AcDbXrecord
280
     1
102
SHADEPLOT
 70
     0
102
SHADEPLOTRESLEVEL
 70
     2
102
SHADEPLOTCUSTOMDPI
 70
   300
  0
XRECORD
  5
AC4
102
{ACAD_REACTORS
330
AC3
102
}
330
AC3
100
AcDbXrecord
280
     1
102
SHADEPLOT
 70
     0
102
SHADEPLOTRESLEVEL
 70
     2
102
SHADEPLOTCUSTOMDPI
 70
   300
  0
XRECORD
  5
AC0
102
{ACAD_REACTORS
330
ABF
102
}
330
ABF
100
AcDbXrecord
280
     1
102
SHADEPLOT
 70
     0
102
SHADEPLOTRESLEVEL
 70
     2
102
SHADEPLOTCUSTOMDPI
 70
   300
  0
ENDSEC
  0
EOF
