  0
SECTION
  2
HEADER
  9
$ACADVER
  1
AC1015
  9
$ACADMAINTVER
 70
     6
  9
$DWGCODEPAGE
  3
ANSI_1252
  9
$INSBASE
 10
0.0
 20
0.0
 30
0.0
  9
$EXTMIN
 10
63.56795561443334
 20
-94.49534494992434
 30
0.0
  9
$EXTMAX
 10
612.7325496226495
 20
440.9939917207745
 30
0.0
  9
$LIMMIN
 10
36.1390071405537
 20
-104.9471581503215
  9
$LIMMAX
 10
641.1758328535385
 20
467.2992102250714
  9
$ORTHOMODE
 70
     1
  9
$REGENMODE
 70
     1
  9
$FILLMODE
 70
     1
  9
$QTEXTMODE
 70
     0
  9
$MIRRTEXT
 70
     0
  9
$LTSCALE
 40
32.67
  9
$ATTMODE
 70
     1
  9
$TEXTSIZE
 40
0.2
  9
$TRACEWID
 40
0.05
  9
$TEXTSTYLE
  7
STANDARD
  9
$CLAYER
  8
0
  9
$CELTYPE
  6
BYLAYER
  9
$CECOLOR
 62
   256
  9
$CELTSCALE
 40
1.0
  9
$DISPSILH
 70
     0
  9
$DIMSCALE
 40
1.0
  9
$DIMASZ
 40
3.5
  9
$DIMEXO
 40
0.0
  9
$DIMDLI
 40
22.572
  9
$DIMRND
 40
0.0
  9
$DIMDLE
 40
0.0
  9
$DIMEXE
 40
1.0
  9
$DIMTP
 40
0.01
  9
$DIMTM
 40
0.01
  9
$DIMTXT
 40
2.5
  9
$DIMCEN
 40
5.346
  9
$DIMTSZ
 40
0.0
  9
$DIMTOL
 70
     1
  9
$DIMLIM
 70
     0
  9
$DIMTIH
 70
     1
  9
$DIMTOH
 70
     1
  9
$DIMSE1
 70
     0
  9
$DIMSE2
 70
     0
  9
$DIMTAD
 70
     0
  9
$DIMZIN
 70
     0
  9
$DIMBLK
  1
FILLED
  9
$DIMASO
 70
     1
  9
$DIMSHO
 70
     1
  9
$DIMPOST
  1

  9
$DIMAPOST
  1

  9
$DIMALT
 70
     0
  9
$DIMALTD
 70
     2
  9
$DIMALTF
 40
25.4
  9
$DIMLFAC
 40
1.0
  9
$DIMTOFL
 70
     0
  9
$DIMTVP
 40
0.0
  9
$DIMTIX
 70
     0
  9
$DIMSOXD
 70
     0
  9
$DIMSAH
 70
     0
  9
$DIMBLK1
  1

  9
$DIMBLK2
  1

  9
$DIMSTYLE
  2
STANDARD
  9
$DIMCLRD
 70
     0
  9
$DIMCLRE
 70
     0
  9
$DIMCLRT
 70
     0
  9
$DIMTFAC
 40
1.0
  9
$DIMGAP
 40
0.625
  9
$DIMJUST
 70
     0
  9
$DIMSD1
 70
     0
  9
$DIMSD2
 70
     0
  9
$DIMTOLJ
 70
     1
  9
$DIMTZIN
 70
     0
  9
$DIMALTZ
 70
     0
  9
$DIMALTTZ
 70
     0
  9
$DIMUPT
 70
     0
  9
$DIMDEC
 70
     4
  9
$DIMTDEC
 70
     4
  9
$DIMALTU
 70
     2
  9
$DIMALTTD
 70
     2
  9
$DIMTXSTY
  7
STANDARD
  9
$DIMAUNIT
 70
     0
  9
$DIMADEC
 70
     0
  9
$DIMALTRND
 40
0.0
  9
$DIMAZIN
 70
     0
  9
$DIMDSEP
 70
    44
  9
$DIMATFIT
 70
     3
  9
$DIMFRAC
 70
     0
  9
$DIMLDRBLK
  1

  9
$DIMLUNIT
 70
     2
  9
$DIMLWD
 70
    -2
  9
$DIMLWE
 70
    -2
  9
$DIMTMOVE
 70
     0
  9
$LUNITS
 70
     2
  9
$LUPREC
 70
     4
  9
$SKETCHINC
 40
0.1
  9
$FILLETRAD
 40
0.0
  9
$AUNITS
 70
     0
  9
$AUPREC
 70
     0
  9
$MENU
  1
.
  9
$ELEVATION
 40
0.0
  9
$PELEVATION
 40
0.0
  9
$THICKNESS
 40
0.0
  9
$LIMCHECK
 70
     0
  9
$CHAMFERA
 40
0.0
  9
$CHAMFERB
 40
0.0
  9
$CHAMFERC
 40
0.0
  9
$CHAMFERD
 40
0.0
  9
$SKPOLY
 70
     0
  9
$TDCREATE
 40
2457664.335778333
  9
$TDUCREATE
 40
2457664.294111667
  9
$TDUPDATE
 40
2457837.569656308
  9
$TDUUPDATE
 40
2457837.527989641
  9
$TDINDWG
 40
0.033997037
  9
$TDUSRTIMER
 40
2457837.527500208
  9
$USRTIMER
 70
     1
  9
$ANGBASE
 50
0.0
  9
$ANGDIR
 70
     0
  9
$PDMODE
 70
     3
  9
$PDSIZE
 40
6.0
  9
$PLINEWID
 40
0.0
  9
$SPLFRAME
 70
     0
  9
$SPLINETYPE
 70
     6
  9
$SPLINESEGS
 70
     8
  9
$HANDSEED
  5
9459
  9
$SURFTAB1
 70
     6
  9
$SURFTAB2
 70
     6
  9
$SURFTYPE
 70
     6
  9
$SURFU
 70
     6
  9
$SURFV
 70
     6
  9
$UCSBASE
  2

  9
$UCSNAME
  2

  9
$UCSORG
 10
0.0
 20
0.0
 30
0.0
  9
$UCSXDIR
 10
1.0
 20
0.0
 30
0.0
  9
$UCSYDIR
 10
0.0
 20
1.0
 30
0.0
  9
$UCSORTHOREF
  2

  9
$UCSORTHOVIEW
 70
     0
  9
$UCSORGTOP
 10
0.0
 20
0.0
 30
0.0
  9
$UCSORGBOTTOM
 10
0.0
 20
0.0
 30
0.0
  9
$UCSORGLEFT
 10
0.0
 20
0.0
 30
0.0
  9
$UCSORGRIGHT
 10
0.0
 20
0.0
 30
0.0
  9
$UCSORGFRONT
 10
0.0
 20
0.0
 30
0.0
  9
$UCSORGBACK
 10
0.0
 20
0.0
 30
0.0
  9
$PUCSBASE
  2

  9
$PUCSNAME
  2

  9
$PUCSORG
 10
0.0
 20
0.0
 30
0.0
  9
$PUCSXDIR
 10
1.0
 20
0.0
 30
0.0
  9
$PUCSYDIR
 10
0.0
 20
1.0
 30
0.0
  9
$PUCSORTHOREF
  2

  9
$PUCSORTHOVIEW
 70
     0
  9
$PUCSORGTOP
 10
0.0
 20
0.0
 30
0.0
  9
$PUCSORGBOTTOM
 10
0.0
 20
0.0
 30
0.0
  9
$PUCSORGLEFT
 10
0.0
 20
0.0
 30
0.0
  9
$PUCSORGRIGHT
 10
0.0
 20
0.0
 30
0.0
  9
$PUCSORGFRONT
 10
0.0
 20
0.0
 30
0.0
  9
$PUCSORGBACK
 10
0.0
 20
0.0
 30
0.0
  9
$USERI1
 70
     0
  9
$USERI2
 70
     0
  9
$USERI3
 70
     0
  9
$USERI4
 70
     0
  9
$USERI5
 70
     0
  9
$USERR1
 40
0.0
  9
$USERR2
 40
0.0
  9
$USERR3
 40
0.0
  9
$USERR4
 40
0.0
  9
$USERR5
 40
0.0
  9
$WORLDVIEW
 70
     1
  9
$SHADEDGE
 70
     3
  9
$SHADEDIF
 70
    70
  9
$TILEMODE
 70
     1
  9
$MAXACTVP
 70
    64
  9
$PINSBASE
 10
0.0
 20
0.0
 30
0.0
  9
$PLIMCHECK
 70
     0
  9
$PEXTMIN
 10
1.000000000000000E+20
 20
1.000000000000000E+20
 30
1.000000000000000E+20
  9
$PEXTMAX
 10
-1.000000000000000E+20
 20
-1.000000000000000E+20
 30
-1.000000000000000E+20
  9
$PLIMMIN
 10
0.0
 20
0.0
  9
$PLIMMAX
 10
594.0
 20
420.0
  9
$UNITMODE
 70
     0
  9
$VISRETAIN
 70
     1
  9
$PLINEGEN
 70
     0
  9
$PSLTSCALE
 70
     1
  9
$TREEDEPTH
 70
  3020
  9
$CMLSTYLE
  2
Standard
  9
$CMLJUST
 70
     0
  9
$CMLSCALE
 40
1.0
  9
$PROXYGRAPHICS
 70
     1
  9
$MEASUREMENT
 70
     1
  9
$CELWEIGHT
370
    -1
  9
$ENDCAPS
280
     0
  9
$JOINSTYLE
280
     0
  9
$LWDISPLAY
290
     0
  9
$INSUNITS
 70
     4
  9
$HYPERLINKBASE
  1

  9
$STYLESHEET
  1

  9
$XEDIT
290
     1
  9
$CEPSNTYPE
380
     0
  9
$PSTYLEMODE
290
     1
  9
$FINGERPRINTGUID
  2
{2AE24FA2-8BE7-44A0-8852-F9D8AE67ED3D}
  9
$VERSIONGUID
  2
{119BB927-33E4-4187-A9A1-DEDDF0E1AE1D}
  9
$EXTNAMES
290
     1
  9
$PSVPSCALE
 40
0.0
  9
$OLESTARTUP
290
     0
  0
ENDSEC
  0
SECTION
  2
CLASSES
  0
CLASS
  1
ACDBDICTIONARYWDFLT
  2
AcDbDictionaryWithDefault
  3
ObjectDBX Classes
 90
        0
280
     0
281
     0
  0
CLASS
  1
ACDBPLACEHOLDER
  2
AcDbPlaceHolder
  3
ObjectDBX Classes
 90
        0
280
     0
281
     0
  0
CLASS
  1
LAYOUT
  2
AcDbLayout
  3
ObjectDBX Classes
 90
        0
280
     0
281
     0
  0
CLASS
  1
MATERIAL
  2
AcDbMaterial
  3
ObjectDBX Classes
 90
     1153
280
     0
281
     0
  0
CLASS
  1
VISUALSTYLE
  2
AcDbVisualStyle
  3
ObjectDBX Classes
 90
     4095
280
     0
281
     0
  0
CLASS
  1
TABLESTYLE
  2
AcDbTableStyle
  3
ObjectDBX Classes
 90
     4095
280
     0
281
     0
  0
CLASS
  1
SCALE
  2
AcDbScale
  3
ObjectDBX Classes
 90
     1153
280
     0
281
     0
  0
CLASS
  1
MLEADERSTYLE
  2
AcDbMLeaderStyle
  3
ACDB_MLEADERSTYLE_CLASS
 90
     4095
280
     0
281
     0
  0
CLASS
  1
ACDBSECTIONVIEWSTYLE
  2
AcDbSectionViewStyle
  3
ObjectDBX Classes
 90
     1025
280
     0
281
     0
  0
CLASS
  1
ACDBDETAILVIEWSTYLE
  2
AcDbDetailViewStyle
  3
ObjectDBX Classes
 90
     1025
280
     0
281
     0
  0
CLASS
  1
DICTIONARYVAR
  2
AcDbDictionaryVar
  3
ObjectDBX Classes
 90
        0
280
     0
281
     0
  0
CLASS
  1
CELLSTYLEMAP
  2
AcDbCellStyleMap
  3
ObjectDBX Classes
 90
     1152
280
     0
281
     0
  0
CLASS
  1
SUN
  2
AcDbSun
  3
SCENEOE
 90
     1153
280
     0
281
     0
  0
CLASS
  1
RASTERVARIABLES
  2
AcDbRasterVariables
  3
ISM
 90
        0
280
     0
281
     0
  0
ENDSEC
  0
SECTION
  2
TABLES
  0
TABLE
  2
VPORT
  5
8
330
0
100
AcDbSymbolTable
 70
     1
  0
VPORT
  5
1F4
330
8
100
AcDbSymbolTableRecord
100
AcDbViewportTableRecord
  2
*ACTIVE
 70
     0
 10
0.0
 20
0.0
 11
1.0
 21
1.0
 12
506.4551337305076
 22
195.660585742437
 13
0.0
 23
0.0
 14
1.0
 24
1.0
 15
0.0
 25
0.0
 16
0.0
 26
0.0
 36
1.0
 17
0.0
 27
0.0
 37
0.0
 40
632.2627249551567
 41
2.042362002567394
 42
50.0
 43
0.0
 44
0.0
 50
0.0
 51
0.0
 71
    16
 72
   100
 73
     1
 74
     1
 75
     0
 76
     0
 77
     0
 78
     0
281
     0
 65
     1
110
0.0
120
0.0
130
0.0
111
1.0
121
0.0
131
0.0
112
0.0
122
1.0
132
0.0
 79
     0
146
0.0
1001
ACAD_NAV_VCDISPLAY
1070
     3
  0
ENDTAB
  0
TABLE
  2
LTYPE
  5
5
330
0
100
AcDbSymbolTable
 70
     3
  0
LTYPE
  5
14
330
5
100
AcDbSymbolTableRecord
100
AcDbLinetypeTableRecord
  2
BYBLOCK
 70
     0
  3

 72
    65
 73
     0
 40
0.0
  0
LTYPE
  5
15
330
5
100
AcDbSymbolTableRecord
100
AcDbLinetypeTableRecord
  2
BYLAYER
 70
     0
  3

 72
    65
 73
     0
 40
0.0
  0
LTYPE
  5
16
330
5
100
AcDbSymbolTableRecord
100
AcDbLinetypeTableRecord
  2
CONTINUOUS
 70
     0
  3
Solid line
 72
    65
 73
     0
 40
0.0
  0
LTYPE
  5
1F5
330
5
100
AcDbSymbolTableRecord
100
AcDbLinetypeTableRecord
  2
CENTER
 70
     0
  3
____ _ ____ _ ____ _ ____ _ ____ _ ____ _ ____
 72
    65
 73
     4
 40
0.6
 49
0.375
 74
     0
 49
-0.075
 74
     0
 49
0.075
 74
     0
 49
-0.075
 74
     0
  0
LTYPE
  5
1F6
330
5
100
AcDbSymbolTableRecord
100
AcDbLinetypeTableRecord
  2
HIDDEN
 70
     0
  3
- - - - - - - - - - - - - - - - - - - -
 72
    65
 73
     2
 40
0.2
 49
0.1
 74
     0
 49
-0.1
 74
     0
  0
ENDTAB
  0
TABLE
  2
LAYER
  5
2
102
{ACAD_XDICTIONARY
360
91DB
102
}
330
0
100
AcDbSymbolTable
 70
     4
  0
LAYER
  5
10
102
{ACAD_XDICTIONARY
360
9144
102
}
330
2
100
AcDbSymbolTableRecord
100
AcDbLayerTableRecord
  2
0
 70
     0
 62
     7
  6
CONTINUOUS
370
    -3
390
F
  0
LAYER
  5
204
102
{ACAD_XDICTIONARY
360
915A
102
}
330
2
100
AcDbSymbolTableRecord
100
AcDbLayerTableRecord
  2
02___PRT_ALL_AXES
 70
     0
 62
     7
  6
CONTINUOUS
370
    -3
390
F
  0
LAYER
  5
21F
102
{ACAD_XDICTIONARY
360
9190
102
}
330
2
100
AcDbSymbolTableRecord
100
AcDbLayerTableRecord
  2
ALL_ASSEM_MEMBER
 70
     0
 62
     7
  6
CONTINUOUS
370
    -3
390
F
  0
LAYER
  5
228
102
{ACAD_XDICTIONARY
360
91A2
102
}
330
2
100
AcDbSymbolTableRecord
100
AcDbLayerTableRecord
  2
ALL_DETAIL_ITEM
 70
     0
 62
     7
  6
CONTINUOUS
370
    -3
390
F
  0
ENDTAB
  0
TABLE
  2
STYLE
  5
3
330
0
100
AcDbSymbolTable
 70
     1
  0
STYLE
  5
11
330
3
100
AcDbSymbolTableRecord
100
AcDbTextStyleTableRecord
  2
STANDARD
 70
     0
 40
0.0
 41
0.6
 50
0.0
 71
     0
 42
0.2
  3
txt
  4

  0
ENDTAB
  0
TABLE
  2
VIEW
  5
6
330
0
100
AcDbSymbolTable
 70
     0
  0
ENDTAB
  0
TABLE
  2
UCS
  5
7
330
0
100
AcDbSymbolTable
 70
     0
  0
ENDTAB
  0
TABLE
  2
APPID
  5
9
330
0
100
AcDbSymbolTable
 70
     3
  0
APPID
  5
248
330
9
100
AcDbSymbolTableRecord
100
AcDbRegAppTableRecord
  2
ACAD
 70
     0
  0
APPID
  5
9134
330
9
100
AcDbSymbolTableRecord
100
AcDbRegAppTableRecord
  2
ACAD_NAV_VCDISPLAY
 70
     0
  0
APPID
  5
923D
330
9
100
AcDbSymbolTableRecord
100
AcDbRegAppTableRecord
  2
ACAD_MLEADERVER
 70
     0
  0
ENDTAB
  0
TABLE
  2
DIMSTYLE
  5
A
330
0
100
AcDbSymbolTable
 70
     1
100
AcDbDimStyleTable
  0
DIMSTYLE
105
2AA
330
A
100
AcDbSymbolTableRecord
100
AcDbDimStyleTableRecord
  2
STANDARD
 70
     0
 41
3.5
 42
0.0
 44
1.0
 47
0.01
 48
0.01
 71
     1
 73
     0
 74
     0
 77
     1
 78
     8
140
2.5
147
0.625
178
     0
271
     2
272
     2
278
    44
284
     8
340
11
341
24B
342
24B
343
24B
344
24B
  0
ENDTAB
  0
TABLE
  2
BLOCK_RECORD
  5
1
330
0
100
AcDbSymbolTable
 70
     1
  0
BLOCK_RECORD
  5
249
330
1
100
AcDbSymbolTableRecord
100
AcDbBlockTableRecord
  2
*Model_Space
340
90DF
  0
BLOCK_RECORD
  5
24A
330
1
100
AcDbSymbolTableRecord
100
AcDbBlockTableRecord
  2
*Paper_Space
340
90E0
  0
BLOCK_RECORD
  5
24B
330
1
100
AcDbSymbolTableRecord
100
AcDbBlockTableRecord
  2
_FILLED
340
0
  0
ENDTAB
  0
ENDSEC
  0
SECTION
  2
BLOCKS
  0
BLOCK
  5
20
330
249
100
AcDbEntity
  8
0
100
AcDbBlockBegin
  2
*Model_Space
 70
     0
 10
0.0
 20
0.0
 30
0.0
  3
*Model_Space
  1
*Model_Space
  0
ENDBLK
  5
21
330
249
100
AcDbEntity
  8
0
100
AcDbBlockEnd
  0
BLOCK
  5
1C
330
24A
100
AcDbEntity
 67
     1
  8
0
100
AcDbBlockBegin
  2
*Paper_Space
 70
     0
 10
0.0
 20
0.0
 30
0.0
  3
*Paper_Space
  1
*Paper_Space
  0
ENDBLK
  5
1D
330
24A
100
AcDbEntity
 67
     1
  8
0
100
AcDbBlockEnd
  0
BLOCK
  5
398
330
24B
100
AcDbEntity
  8
0
100
AcDbBlockBegin
  2
_FILLED
 70
     0
 10
0.0
 20
0.0
 30
0.0
  3
_FILLED
  1
_FILLED
  0
SOLID
  5
399
330
24B
100
AcDbEntity
  8
0
  6
ByBlock
 62
     0
100
AcDbTrace
 10
0.0
 20
0.0
 30
0.0
 11
-1.0
 21
0.2142857143
 31
0.0
 12
-1.0
 22
-0.2142857143
 32
0.0
 13
-1.0
 23
-0.2142857143
 33
0.0
  0
ENDBLK
  5
39A
330
24B
100
AcDbEntity
  8
0
  6
ByBlock
 62
     0
100
AcDbBlockEnd
  0
ENDSEC
  0
SECTION
  2
ENTITIES
  0
LINE
  5
5A85
330
249
100
AcDbEntity
  8
ALL_ASSEM_MEMBER
  6
Continuous
 62
     7
100
AcDbLine
 10
64.62677861623345
 20
376.1939917391946
 30
0.0
 11
64.62677861623345
 21
224.1939917847946
 31
0.0
  0
LINE
  5
5A92
330
249
100
AcDbEntity
  8
02___PRT_ALL_AXES
  6
CENTER
 62
     2
100
AcDbLine
 10
67.62677861533342
 20
253.1939917760947
 30
0.0
 11
67.62677861533342
 21
249.1670687003796
 31
0.0
  0
LINE
  5
5A93
330
249
100
AcDbEntity
  8
02___PRT_ALL_AXES
  6
CENTER
 62
     2
100
AcDbLine
 10
67.62677861533342
 20
253.1939917760947
 30
0.0
 11
67.62677861533342
 21
257.2209148518095
 31
0.0
  0
LINE
  5
5ABC
330
249
100
AcDbEntity
  8
ALL_ASSEM_MEMBER
  6
Continuous
 62
     7
100
AcDbLine
 10
70.62677861443345
 20
224.1939917847946
 30
0.0
 11
70.62677861443345
 21
376.1939917391946
 31
0.0
  0
LINE
  5
5B4D
330
249
100
AcDbEntity
  8
ALL_ASSEM_MEMBER
  6
Continuous
 62
     7
100
AcDbLine
 10
76.44809895622552
 20
379.3153120817966
 30
0.0
 11
73.32677861362345
 21
376.1939917391946
 31
0.0
  0
LINE
  5
5B52
330
249
100
AcDbEntity
  8
ALL_ASSEM_MEMBER
  6
Continuous
 62
     7
100
AcDbLine
 10
64.62677861623345
 20
224.1939917847946
 30
0.0
 11
300.6267785454334
 21
224.1939917847946
 31
0.0
  0
LINE
  5
5B87
330
249
100
AcDbEntity
  8
ALL_ASSEM_MEMBER
  6
Continuous
 62
     7
100
AcDbLine
 10
70.62677861443345
 20
230.1939917829945
 30
0.0
 11
294.6267785472335
 21
230.1939917829945
 31
0.0
  0
LINE
  5
5C20
330
249
100
AcDbEntity
  8
02___PRT_ALL_AXES
  6
CENTER
 62
     2
100
AcDbLine
 10
297.6267785463334
 20
253.1939917760947
 30
0.0
 11
293.5998554706184
 21
253.1939917760947
 31
0.0
  0
LINE
  5
5C21
330
249
100
AcDbEntity
  8
02___PRT_ALL_AXES
  6
CENTER
 62
     2
100
AcDbLine
 10
67.62677861533342
 20
253.1939917760947
 30
0.0
 11
63.59985553961843
 21
253.1939917760947
 31
0.0
  0
LINE
  5
5C22
330
249
100
AcDbEntity
  8
02___PRT_ALL_AXES
  6
CENTER
 62
     2
100
AcDbLine
 10
67.62677861533342
 20
253.1939917760947
 30
0.0
 11
71.65370169104844
 21
253.1939917760947
 31
0.0
  0
LINE
  5
5C23
330
249
100
AcDbEntity
  8
02___PRT_ALL_AXES
  6
CENTER
 62
     2
100
AcDbLine
 10
297.6267785463334
 20
253.1939917760947
 30
0.0
 11
301.6537016220483
 21
253.1939917760947
 31
0.0
  0
LINE
  5
5CD3
330
249
100
AcDbEntity
  8
ALL_ASSEM_MEMBER
  6
Continuous
 62
     7
100
AcDbLine
 10
67.99038251214742
 20
371.5575956375085
 30
0.0
 11
65.99038251274743
 21
373.5575956369088
 31
0.0
  0
LINE
  5
5D34
330
249
100
AcDbEntity
  8
ALL_ASSEM_MEMBER
  6
Continuous
 62
     7
100
AcDbLine
 10
67.26317471851942
 20
374.8303878426806
 30
0.0
 11
69.26317471791944
 21
372.8303878432804
 31
0.0
  0
LINE
  5
5FCD
330
249
100
AcDbEntity
  8
ALL_ASSEM_MEMBER
  6
Continuous
 62
     7
100
AcDbLine
 10
176.8267785825735
 20
435.7939917213145
 30
0.0
 11
176.8267785825735
 21
383.5239492103802
 31
0.0
  0
LINE
  5
5FE6
330
249
100
AcDbEntity
  8
ALL_ASSEM_MEMBER
  6
Continuous
 62
     7
100
AcDbLine
 10
180.6267785814335
 20
383.5239492103802
 30
0.0
 11
180.6267785814335
 21
380.1939917379946
 31
0.0
  0
LINE
  5
6011
330
249
100
AcDbEntity
  8
ALL_ASSEM_MEMBER
  6
Continuous
 62
     7
100
AcDbLine
 10
65.99038251274743
 20
226.8303878870806
 30
0.0
 11
67.99038251214742
 21
228.8303878864805
 31
0.0
  0
LINE
  5
6015
330
249
100
AcDbEntity
  8
ALL_ASSEM_MEMBER
  6
Continuous
 62
     7
100
AcDbLine
 10
69.26317471791944
 20
227.5575956807086
 30
0.0
 11
67.26317471851942
 21
225.5575956813086
 31
0.0
  0
LINE
  5
622A
330
249
100
AcDbEntity
  8
ALL_ASSEM_MEMBER
  6
Continuous
 62
     7
100
AcDbLine
 10
295.9903824437475
 20
227.5575956807086
 30
0.0
 11
297.9903824431474
 21
225.5575956813086
 31
0.0
  0
LINE
  5
622B
330
249
100
AcDbEntity
  8
ALL_ASSEM_MEMBER
  6
Continuous
 62
     7
100
AcDbLine
 10
299.2631746489195
 20
226.8303878870806
 30
0.0
 11
297.2631746495194
 21
228.8303878864805
 31
0.0
  0
LINE
  5
6384
330
249
100
AcDbEntity
  8
ALL_ASSEM_MEMBER
  6
Continuous
 62
     7
100
AcDbLine
 10
215.8152358390308
 20
401.1939917316945
 30
0.0
 11
215.8152358390308
 21
383.5239492103802
 31
0.0
  0
LINE
  5
6460
330
249
100
AcDbEntity
  8
ALL_ASSEM_MEMBER
  6
Continuous
 62
     7
100
AcDbLine
 10
216.6267785706335
 20
383.5239492103802
 30
0.0
 11
216.6267785706335
 21
380.1939917379946
 31
0.0
  0
LINE
  5
647B
330
249
100
AcDbEntity
  8
ALL_ASSEM_MEMBER
  6
Continuous
 62
     7
100
AcDbLine
 10
220.4267785694935
 20
435.7939917213145
 30
0.0
 11
220.4267785694935
 21
401.1939917316945
 31
0.0
  0
LINE
  5
6549
330
249
100
AcDbEntity
  8
ALL_ASSEM_MEMBER
  6
Continuous
 62
     7
100
AcDbLine
 10
70.62677861443345
 20
370.1939917409945
 30
0.0
 11
294.6267785472335
 21
370.1939917409945
 31
0.0
  0
LINE
  5
6623
330
249
100
AcDbEntity
  8
ALL_ASSEM_MEMBER
  6
Continuous
 62
     7
100
AcDbLine
 10
228.6267785670335
 20
401.1939917316945
 30
0.0
 11
228.6267785670335
 21
383.5239492103802
 31
0.0
  0
LINE
  5
6630
330
249
100
AcDbEntity
  8
ALL_ASSEM_MEMBER
  6
Continuous
 62
     7
100
AcDbLine
 10
297.9903824431474
 20
374.8303878426806
 30
0.0
 11
295.9903824437475
 21
372.8303878432804
 31
0.0
  0
LINE
  5
6631
330
249
100
AcDbEntity
  8
ALL_ASSEM_MEMBER
  6
Continuous
 62
     7
100
AcDbLine
 10
297.2631746495194
 20
371.5575956375085
 30
0.0
 11
299.2631746489195
 21
373.5575956369088
 31
0.0
  0
LINE
  5
665E
330
249
100
AcDbEntity
  8
ALL_ASSEM_MEMBER
  6
Continuous
 62
     7
100
AcDbLine
 10
64.62677861623345
 20
376.1939917391946
 30
0.0
 11
300.6267785454334
 21
376.1939917391946
 31
0.0
  0
LINE
  5
6676
330
249
100
AcDbEntity
  8
ALL_ASSEM_MEMBER
  6
Continuous
 62
     7
100
AcDbLine
 10
78.56941929912759
 20
380.1939917379946
 30
0.0
 11
286.6841378625393
 21
380.1939917379946
 31
0.0
  0
LINE
  5
67A3
330
249
100
AcDbEntity
  8
ALL_ASSEM_MEMBER
  6
Continuous
 62
     7
100
AcDbLine
 10
228.6267785670335
 20
401.1939917316945
 30
0.0
 11
215.8152358390308
 21
401.1939917316945
 31
0.0
  0
LINE
  5
6819
330
249
100
AcDbEntity
  8
ALL_ASSEM_MEMBER
  6
Continuous
 62
     9
100
AcDbLine
 10
176.8267785825735
 20
435.7939917213145
 30
0.0
 11
220.4267785694935
 21
435.7939917213145
 31
0.0
  0
LINE
  5
681A
330
249
100
AcDbEntity
  8
ALL_ASSEM_MEMBER
  6
Continuous
 62
     7
100
AcDbLine
 10
218.6267785700335
 20
437.5939917207745
 30
0.0
 11
178.6267785820334
 21
437.5939917207745
 31
0.0
  0
LINE
  5
6896
330
249
100
AcDbEntity
  8
ALL_ASSEM_MEMBER
  6
Continuous
 62
     7
100
AcDbLine
 10
294.6267785472335
 20
224.1939917847946
 30
0.0
 11
294.6267785472335
 21
376.1939917391946
 31
0.0
  0
LINE
  5
68BF
330
249
100
AcDbEntity
  8
02___PRT_ALL_AXES
  6
CENTER
 62
     2
100
AcDbLine
 10
297.6267785463334
 20
253.1939917760947
 30
0.0
 11
297.6267785463334
 21
249.1670687003796
 31
0.0
  0
LINE
  5
68C0
330
249
100
AcDbEntity
  8
02___PRT_ALL_AXES
  6
CENTER
 62
     2
100
AcDbLine
 10
297.6267785463334
 20
253.1939917760947
 30
0.0
 11
297.6267785463334
 21
257.2209148518095
 31
0.0
  0
LINE
  5
68C6
330
249
100
AcDbEntity
  8
ALL_ASSEM_MEMBER
  6
Continuous
 62
     7
100
AcDbLine
 10
300.6267785454334
 20
224.1939917847946
 30
0.0
 11
300.6267785454334
 21
376.1939917391946
 31
0.0
  0
LINE
  5
68D5
330
249
100
AcDbEntity
  8
ALL_ASSEM_MEMBER
  6
Continuous
 62
     7
100
AcDbLine
 10
291.9267785480434
 20
376.1939917391946
 30
0.0
 11
288.8054582054414
 21
379.3153120817966
 31
0.0
  0
LINE
  5
6F6A
330
249
100
AcDbEntity
  8
0
100
AcDbLine
 10
158.6267785880335
 20
-23.69873628285418
 30
0.0
 11
158.6267785880335
 21
112.3012637171458
 31
0.0
  0
LINE
  5
7127
330
249
100
AcDbEntity
  8
ALL_ASSEM_MEMBER
  6
Continuous
 62
     7
100
AcDbLine
 10
228.6267785670335
 20
35.30126371984582
 30
0.0
 11
218.4222674196333
 21
35.30126371984582
 31
0.0
  0
LINE
  5
7204
330
249
100
AcDbEntity
  8
ALL_ASSEM_MEMBER
  6
Continuous
 62
     7
100
AcDbLine
 10
228.6267785670335
 20
53.30126371444581
 30
0.0
 11
218.4222674196333
 21
53.30126371444581
 31
0.0
  0
LINE
  5
753C
330
249
100
AcDbEntity
  8
ALL_ASSEM_MEMBER
  6
Continuous
 62
     7
100
AcDbLine
 10
228.6267785670335
 20
53.30126371444581
 30
0.0
 11
228.6267785670335
 21
35.30126371984582
 31
0.0
  0
LINE
  5
75FD
330
249
100
AcDbEntity
  8
0
100
AcDbLine
 10
238.6267785640334
 20
112.3012637171458
 30
0.0
 11
238.6267785640334
 21
-23.69873628285418
 31
0.0
  0
LINE
  5
7C24
330
249
100
AcDbEntity
  8
02___PRT_ALL_AXES
  6
CENTER
 62
     2
100
AcDbLine
 10
585.7576030616165
 20
253.1939917760947
 30
0.0
 11
579.3037569097066
 21
253.1939917760947
 31
0.0
  0
LINE
  5
7EEB
330
249
100
AcDbEntity
  8
ALL_ASSEM_MEMBER
  6
HIDDEN
 62
     8
100
AcDbLine
 10
461.3806800220064
 20
401.1939917316945
 30
0.0
 11
461.3806800220064
 21
383.5239492103802
 31
0.0
  0
LINE
  5
8070
330
249
100
AcDbEntity
  8
ALL_ASSEM_MEMBER
  6
HIDDEN
 62
     8
100
AcDbLine
 10
479.3806800166065
 20
383.5239492103802
 30
0.0
 11
479.3806800166065
 21
401.1939917316945
 31
0.0
  0
LINE
  5
811B
330
249
100
AcDbEntity
  8
ALL_ASSEM_MEMBER
  6
Continuous
 62
     7
100
AcDbLine
 10
492.1806800127665
 20
383.5239492103802
 30
0.0
 11
492.1806800127665
 21
435.7939917213145
 31
0.0
  0
LINE
  5
8126
330
249
100
AcDbEntity
  8
02___PRT_ALL_AXES
  6
CENTER
 62
     2
100
AcDbLine
 10
355.0037569769965
 20
347.1939917478945
 30
0.0
 11
361.4576031289064
 21
347.1939917478945
 31
0.0
  0
LINE
  5
8481
330
249
100
AcDbEntity
  8
ALL_ASSEM_MEMBER
  6
Continuous
 62
     7
100
AcDbLine
 10
402.3806800397065
 20
378.5939917384745
 30
0.0
 11
538.3806799989065
 21
378.5939917384745
 31
0.0
  0
LINE
  5
856B
330
249
100
AcDbEntity
  8
ALL_ASSEM_MEMBER
  6
HIDDEN
 62
     8
100
AcDbLine
 10
461.3806800220064
 20
401.1939917316945
 30
0.0
 11
479.3806800166065
 21
401.1939917316945
 31
0.0
  0
LINE
  5
863E
330
249
100
AcDbEntity
  8
0
100
AcDbLine
 10
582.3806799857066
 20
375.5939917409945
 30
0.0
 11
582.3806799857066
 21
224.7939842829945
 31
0.0
  0
LINE
  5
8656
330
249
100
AcDbEntity
  8
ALL_ASSEM_MEMBER
  6
Continuous
 62
     7
100
AcDbLine
 10
490.3806800133065
 20
437.5939917207745
 30
0.0
 11
450.3806800253064
 21
437.5939917207745
 31
0.0
  0
ARC
  5
8ACC
330
249
100
AcDbEntity
  8
ALL_ASSEM_MEMBER
  6
Continuous
 62
     7
100
AcDbCircle
 10
66.62677861563341
 20
226.1939917841946
 30
0.0
 40
0.89999999973
100
AcDbArc
 50
134.9999999999975
 51
315.0000000000013
  0
ARC
  5
8ACD
330
249
100
AcDbEntity
  8
ALL_ASSEM_MEMBER
  6
Continuous
 62
     7
100
AcDbCircle
 10
68.62677861503346
 20
228.1939917835945
 30
0.0
 40
0.89999999973
100
AcDbArc
 50
314.9999999999974
 51
135.0
  0
CIRCLE
  5
8ADD
330
249
100
AcDbEntity
  8
ALL_ASSEM_MEMBER
  6
Continuous
 62
     7
100
AcDbCircle
 10
67.62677861533342
 20
253.1939917760947
 30
0.0
 40
0.9499999997150002
  0
CIRCLE
  5
8B0C
330
249
100
AcDbEntity
  8
ALL_ASSEM_MEMBER
  6
HIDDEN
 62
     8
100
AcDbCircle
 10
67.62677861533342
 20
347.1939917478945
 30
0.0
 40
0.9499999997150002
  0
ARC
  5
8B20
330
249
100
AcDbEntity
  8
ALL_ASSEM_MEMBER
  6
Continuous
 62
     7
100
AcDbCircle
 10
68.62677861503346
 20
372.1939917403946
 30
0.0
 40
0.89999999973
100
AcDbArc
 50
225.0000000000026
 51
45.00000000000384
  0
ARC
  5
8B21
330
249
100
AcDbEntity
  8
ALL_ASSEM_MEMBER
  6
Continuous
 62
     7
100
AcDbCircle
 10
66.62677861563341
 20
374.1939917397946
 30
0.0
 40
0.89999999973
100
AcDbArc
 50
45.00000000000128
 51
225.0000000000013
  0
ARC
  5
8B33
330
249
100
AcDbEntity
  8
ALL_ASSEM_MEMBER
  6
Continuous
 62
     7
100
AcDbCircle
 10
78.56941929912759
 20
377.1939917388946
 30
0.0
 40
2.9999999991
100
AcDbArc
 50
90.0
 51
134.9999999999992
  0
ARC
  5
8B39
330
249
100
AcDbEntity
  8
ALL_ASSEM_MEMBER
  6
Continuous
 62
     7
100
AcDbCircle
 10
86.62677860963345
 20
375.7939917393145
 30
0.0
 40
2.9999999991
100
AcDbArc
 50
7.901055642600189
 51
172.0989443573999
  0
ARC
  5
8B7D
330
249
100
AcDbEntity
  8
ALL_ASSEM_MEMBER
  6
Continuous
 62
     7
100
AcDbCircle
 10
178.6267785820334
 20
435.7939917213145
 30
0.0
 40
1.799999999459999
100
AcDbArc
 50
90.0
 51
180.0
  0
ARC
  5
8B90
330
249
100
AcDbEntity
  8
ALL_ASSEM_MEMBER
  6
Continuous
 62
     7
100
AcDbCircle
 10
298.6267785460333
 20
226.1939917841946
 30
0.0
 40
0.89999999973
100
AcDbArc
 50
225.0
 51
45.00000000000384
  0
ARC
  5
8B91
330
249
100
AcDbEntity
  8
ALL_ASSEM_MEMBER
  6
Continuous
 62
     7
100
AcDbCircle
 10
296.6267785466334
 20
228.1939917835945
 30
0.0
 40
0.89999999973
100
AcDbArc
 50
45.00000000000128
 51
225.0000000000038
  0
CIRCLE
  5
8BA1
330
249
100
AcDbEntity
  8
ALL_ASSEM_MEMBER
  6
Continuous
 62
     7
100
AcDbCircle
 10
297.6267785463334
 20
253.1939917760947
 30
0.0
 40
0.9499999997150002
  0
ARC
  5
8BFD
330
249
100
AcDbEntity
  8
ALL_ASSEM_MEMBER
  6
Continuous
 62
     7
100
AcDbCircle
 10
218.6267785700335
 20
435.7939917213145
 30
0.0
 40
1.799999999459999
100
AcDbArc
 50
0.0
 51
90.0
  0
CIRCLE
  5
8C18
330
249
100
AcDbEntity
  8
ALL_ASSEM_MEMBER
  6
HIDDEN
 62
     8
100
AcDbCircle
 10
297.6267785463334
 20
347.1939917478945
 30
0.0
 40
0.9499999997150002
  0
ARC
  5
8C20
330
249
100
AcDbEntity
  8
ALL_ASSEM_MEMBER
  6
Continuous
 62
     7
100
AcDbCircle
 10
278.6267785520334
 20
375.7939917393145
 30
0.0
 40
2.9999999991
100
AcDbArc
 50
7.901055642600077
 51
172.0989443573998
  0
ARC
  5
8C44
330
249
100
AcDbEntity
  8
ALL_ASSEM_MEMBER
  6
Continuous
 62
     7
100
AcDbCircle
 10
286.6841378625393
 20
377.1939917388946
 30
0.0
 40
2.9999999991
100
AcDbArc
 50
45.00000000000154
 51
90.0
  0
ARC
  5
8C46
330
249
100
AcDbEntity
  8
ALL_ASSEM_MEMBER
  6
Continuous
 62
     7
100
AcDbCircle
 10
296.6267785466334
 20
372.1939917403946
 30
0.0
 40
0.89999999973
100
AcDbArc
 50
134.9999999999949
 51
314.9999999999974
  0
ARC
  5
8C47
330
249
100
AcDbEntity
  8
ALL_ASSEM_MEMBER
  6
Continuous
 62
     7
100
AcDbCircle
 10
298.6267785460333
 20
374.1939917397946
 30
0.0
 40
0.89999999973
100
AcDbArc
 50
314.9999999999974
 51
134.9999999999975
  0
ARC
  5
8E4F
330
249
100
AcDbEntity
  8
ALL_ASSEM_MEMBER
  6
HIDDEN
 62
     8
100
AcDbCircle
 10
198.6267785760334
 20
44.30126371714583
 30
0.0
 40
24.9999999925
100
AcDbArc
 50
338.8909090097999
 51
21.1090909902
  0
ARC
  5
8E50
330
249
100
AcDbEntity
  8
ALL_ASSEM_MEMBER
  6
Continuous
 62
     7
100
AcDbCircle
 10
198.6267785760334
 20
44.30126371714583
 30
0.0
 40
24.9999999925
100
AcDbArc
 50
21.1090909902
 51
338.8909090097999
  0
CIRCLE
  5
8E51
330
249
100
AcDbEntity
  8
ALL_ASSEM_MEMBER
  6
Continuous
 62
     7
100
AcDbCircle
 10
198.6267785760334
 20
44.30126371714583
 30
0.0
 40
21.79999999346
  0
ARC
  5
8FF8
330
249
100
AcDbEntity
  8
ALL_ASSEM_MEMBER
  6
Continuous
 62
     7
100
AcDbCircle
 10
450.3806800253064
 20
435.7939917213145
 30
0.0
 40
1.799999999459999
100
AcDbArc
 50
90.0
 51
180.0
  0
CIRCLE
  5
900D
330
249
100
AcDbEntity
  8
0
100
AcDbCircle
 10
470.3806800193065
 20
292.3939917643346
 30
0.0
 40
37.49999998875
  0
ARC
  5
907F
330
249
100
AcDbEntity
  8
ALL_ASSEM_MEMBER
  6
Continuous
 62
     7
100
AcDbCircle
 10
490.3806800133065
 20
435.7939917213145
 30
0.0
 40
1.799999999459999
100
AcDbArc
 50
0.0
 51
90.0
  0
LINE
  5
9286
330
249
100
AcDbEntity
  8
0
100
AcDbLine
 10
358.3806800397065
 20
370.1939917409945
 30
0.0
 11
582.3806799857066
 21
370.1939917409945
 31
0.0
  0
LINE
  5
9288
330
249
100
AcDbEntity
  8
0
100
AcDbLine
 10
402.3806800397065
 20
380.1143749086638
 30
0.0
 11
402.3806800397065
 21
370.1939917409945
 31
0.0
  0
LINE
  5
9289
330
249
100
AcDbEntity
  8
0
100
AcDbLine
 10
538.3806799989065
 20
380.1143749086638
 30
0.0
 11
538.3806799989065
 21
370.1939917409945
 31
0.0
  0
LINE
  5
928B
330
249
100
AcDbEntity
  8
0
100
AcDbLine
 10
358.3806800397065
 20
375.5939917409945
 30
0.0
 11
358.3806800397065
 21
224.7939842829945
 31
0.0
  0
LINE
  5
928D
330
249
100
AcDbEntity
  8
0
100
AcDbLine
 10
358.3806800397065
 20
230.1939917829945
 30
0.0
 11
582.3806799857066
 21
230.1939917829945
 31
0.0
  0
LINE
  5
928F
330
249
100
AcDbEntity
  8
0
100
AcDbLine
 10
448.5806800258464
 20
435.7939917213145
 30
0.0
 11
492.1806800127665
 21
435.7939917213145
 31
0.0
  0
LINE
  5
9291
330
249
100
AcDbEntity
  8
0
100
AcDbLine
 10
448.5806800258464
 20
435.7939917213145
 30
0.0
 11
448.5806800258464
 21
383.5239492103802
 31
0.0
  0
LINE
  5
9292
330
249
100
AcDbEntity
  8
0
100
AcDbLine
 10
448.5806800258464
 20
383.5239492103802
 30
0.0
 11
492.1806800127665
 21
383.5239492103802
 31
0.0
  0
LINE
  5
9293
330
249
100
AcDbEntity
  8
ALL_ASSEM_MEMBER
  6
Continuous
 62
     7
100
AcDbLine
 10
452.3806800247065
 20
383.5239492103802
 30
0.0
 11
452.3806800247065
 21
378.5939917384745
 31
0.0
  0
LINE
  5
9294
330
249
100
AcDbEntity
  8
ALL_ASSEM_MEMBER
  6
Continuous
 62
     7
100
AcDbLine
 10
488.3806800139064
 20
383.5239492103802
 30
0.0
 11
488.3806800139064
 21
378.5939917384745
 31
0.0
  0
LINE
  5
9295
330
249
100
AcDbEntity
  8
ALL_ASSEM_MEMBER
  6
Continuous
 62
     7
100
AcDbLine
 10
228.6267785670335
 20
383.5239492103802
 30
0.0
 11
176.8267785825735
 21
383.5239492103802
 31
0.0
  0
LINE
  5
9297
330
249
100
AcDbEntity
  8
02___PRT_ALL_AXES
  6
CENTER
 62
     2
100
AcDbLine
 10
198.6267785760334
 20
440.9939917207745
 30
0.0
 11
198.6267785760334
 21
359.2868899655519
 31
0.0
  0
LINE
  5
9298
330
249
100
AcDbEntity
  8
02___PRT_ALL_AXES
  6
CENTER
 62
     2
100
AcDbLine
 10
470.3806800193065
 20
440.9939917207745
 30
0.0
 11
470.3806800193065
 21
359.2868899655519
 31
0.0
  0
LINE
  5
929B
330
249
100
AcDbEntity
  8
0
100
AcDbLine
 10
64.27383791443333
 20
156.3012637171458
 30
0.0
 11
300.9797192472331
 21
156.3012637171458
 31
0.0
  0
LINE
  5
929C
330
249
100
AcDbEntity
  8
0
100
AcDbLine
 10
64.27383791443333
 20
-67.69873628285418
 30
0.0
 11
300.9797192472331
 21
-67.69873628285418
 31
0.0
  0
LINE
  5
929E
330
249
100
AcDbEntity
  8
0
100
AcDbLine
 10
70.62677861443345
 20
156.3012637171458
 30
0.0
 11
70.62677861443345
 21
-67.69873628285418
 31
0.0
  0
LINE
  5
92A0
330
249
100
AcDbEntity
  8
0
100
AcDbLine
 10
294.6267785472335
 20
156.3012637171458
 30
0.0
 11
294.6267785472335
 21
-67.69873628285418
 31
0.0
  0
LINE
  5
92A1
330
249
100
AcDbEntity
  8
0
100
AcDbLine
 10
70.62677861443345
 20
112.3012637171458
 30
0.0
 11
294.6267785472335
 21
112.3012637171458
 31
0.0
  0
LINE
  5
92A2
330
249
100
AcDbEntity
  8
0
100
AcDbLine
 10
70.62677861443345
 20
-23.69873628285418
 30
0.0
 11
294.6267785472335
 21
-23.69873628285418
 31
0.0
  0
LINE
  5
9402
330
249
100
AcDbEntity
  8
0
100
AcDbLine
 10
63.56795561443357
 20
155.5953814171461
 30
0.0
 11
63.56795561443357
 21
153.9483227171461
 31
0.0
  0
ARC
  5
9403
330
249
100
AcDbEntity
  8
0
100
AcDbCircle
 10
64.27383791443333
 20
155.5953814171461
 30
0.0
 40
0.7058823000000001
100
AcDbArc
 50
90.0
 51
180.0
  0
LINE
  5
9404
330
249
100
AcDbEntity
  8
0
100
AcDbLine
 10
63.56795561443357
 20
-66.9928539828542
 30
0.0
 11
63.56795561443357
 21
-65.3457952828542
 31
0.0
  0
ARC
  5
9405
330
249
100
AcDbEntity
  8
0
100
AcDbCircle
 10
64.27383791443333
 20
-66.9928539828542
 30
0.0
 40
0.7058823000000001
100
AcDbArc
 50
180.0
 51
270.0
  0
LINE
  5
9406
330
249
100
AcDbEntity
  8
0
100
AcDbLine
 10
301.6856015472324
 20
155.5953814171459
 30
0.0
 11
301.6856015472324
 21
153.9483227171459
 31
0.0
  0
ARC
  5
9407
330
249
100
AcDbEntity
  8
0
100
AcDbCircle
 10
300.9797192472331
 20
155.5953814171459
 30
0.0
 40
0.7058823000000001
100
AcDbArc
 50
0.0
 51
90.0
  0
LINE
  5
9408
330
249
100
AcDbEntity
  8
0
100
AcDbLine
 10
301.6856015472324
 20
-66.9928539828542
 30
0.0
 11
301.6856015472324
 21
-65.3457952828542
 31
0.0
  0
ARC
  5
9409
330
249
100
AcDbEntity
  8
0
100
AcDbCircle
 10
300.9797192472331
 20
-66.9928539828542
 30
0.0
 40
0.7058823000000001
100
AcDbArc
 50
270.0
 51
0.0
  0
LINE
  5
940A
330
249
100
AcDbEntity
  8
0
 62
     2
100
AcDbLine
 10
182.6267785808332
 20
187.8241938620762
 30
0.0
 11
182.6267785808332
 21
145.8602520684653
 31
0.0
  0
LINE
  5
940B
330
249
100
AcDbEntity
  8
0
 62
     2
100
AcDbLine
 10
182.6267785808332
 20
145.8602520684653
 30
0.0
 11
176.7331760889301
 21
164.6973992735973
 31
0.0
  0
LINE
  5
940C
330
249
100
AcDbEntity
  8
0
 62
     2
100
AcDbLine
 10
176.7331760889301
 20
164.6973992735973
 30
0.0
 11
182.6267785808332
 21
164.6973992735973
 31
0.0
  0
LINE
  5
940D
330
249
100
AcDbEntity
  8
0
 62
     2
100
AcDbLine
 10
182.6267785808332
 20
145.8602520684653
 30
0.0
 11
188.5203810727353
 21
164.6973992735973
 31
0.0
  0
LINE
  5
940E
330
249
100
AcDbEntity
  8
0
 62
     2
100
AcDbLine
 10
188.5203810727353
 20
164.6973992735973
 30
0.0
 11
182.6267785808332
 21
164.6973992735973
 31
0.0
  0
LINE
  5
940F
330
249
100
AcDbEntity
  8
0
 62
     2
100
AcDbLine
 10
182.6267785808332
 20
-52.53140315631336
 30
0.0
 11
182.6267785808332
 21
-94.49534494992432
 31
0.0
  0
LINE
  5
9410
330
249
100
AcDbEntity
  8
0
 62
     2
100
AcDbLine
 10
182.6267785808332
 20
-94.49534494992432
 30
0.0
 11
176.7331760889301
 21
-75.65819774479226
 31
0.0
  0
LINE
  5
9411
330
249
100
AcDbEntity
  8
0
 62
     2
100
AcDbLine
 10
176.7331760889301
 20
-75.65819774479226
 30
0.0
 11
182.6267785808332
 21
-75.65819774479226
 31
0.0
  0
LINE
  5
9412
330
249
100
AcDbEntity
  8
0
 62
     2
100
AcDbLine
 10
182.6267785808332
 20
-94.49534494992432
 30
0.0
 11
188.5203810727353
 21
-75.65819774479226
 31
0.0
  0
LINE
  5
9413
330
249
100
AcDbEntity
  8
0
 62
     2
100
AcDbLine
 10
188.5203810727353
 20
-75.65819774479226
 30
0.0
 11
182.6267785808332
 21
-75.65819774479226
 31
0.0
  0
LINE
  5
9414
330
249
100
AcDbEntity
  8
02___PRT_ALL_AXES
  6
CENTER
 62
     2
100
AcDbLine
 10
198.626778576033
 20
18.73885249835745
 30
0.0
 11
198.626778576033
 21
69.86367493593421
 31
0.0
  0
LINE
  5
9415
330
249
100
AcDbEntity
  8
02___PRT_ALL_AXES
  6
CENTER
 62
     2
100
AcDbLine
 10
173.064367357245
 20
44.30126371714583
 30
0.0
 11
224.1891897948218
 21
44.30126371714583
 31
0.0
  0
MTEXT
  5
9416
330
249
100
AcDbEntity
  8
ALL_DETAIL_ITEM
  6
Continuous
 62
     2
100
AcDbMText
 10
563.9172757745511
 20
154.1040442622217
 30
0.0
 40
15.0
 41
0.0
 71
     3
 72
     1
  1
{BKF 630 Motor 100-112 M 1:5}
 73
     1
 44
1.0
1001
ACAD
1000
ACAD_MTEXT_DEFINED_HEIGHT_BEGIN
1070
    46
1040
15.0
1000
ACAD_MTEXT_DEFINED_HEIGHT_END
  0
LINE
  5
9417
330
249
100
AcDbEntity
  8
0
 62
     2
100
AcDbLine
 10
328.5920723778294
 20
279.7771165648364
 30
0.0
 11
370.5560141714408
 21
279.7771165648364
 31
0.0
  0
LINE
  5
9418
330
249
100
AcDbEntity
  8
0
 62
     2
100
AcDbLine
 10
370.5560141714408
 20
279.7771165648364
 30
0.0
 11
351.7188669663087
 21
285.670719056739
 31
0.0
  0
LINE
  5
9419
330
249
100
AcDbEntity
  8
0
 62
     2
100
AcDbLine
 10
351.7188669663087
 20
285.670719056739
 30
0.0
 11
351.7188669663087
 21
279.7771165648364
 31
0.0
  0
LINE
  5
941A
330
249
100
AcDbEntity
  8
0
 62
     2
100
AcDbLine
 10
370.5560141714408
 20
279.7771165648364
 30
0.0
 11
351.7188669663087
 21
273.883514072934
 31
0.0
  0
LINE
  5
941B
330
249
100
AcDbEntity
  8
0
 62
     2
100
AcDbLine
 10
351.7188669663087
 20
273.883514072934
 30
0.0
 11
351.7188669663087
 21
279.7771165648364
 31
0.0
  0
LINE
  5
941C
330
249
100
AcDbEntity
  8
0
 62
     2
100
AcDbLine
 10
570.768607829039
 20
326.1644335594715
 30
0.0
 11
612.7325496226495
 21
326.1644335594715
 31
0.0
  0
LINE
  5
941D
330
249
100
AcDbEntity
  8
0
 62
     2
100
AcDbLine
 10
612.7325496226495
 20
326.1644335594715
 30
0.0
 11
593.8954024175187
 21
332.0580360513741
 31
0.0
  0
LINE
  5
941E
330
249
100
AcDbEntity
  8
0
 62
     2
100
AcDbLine
 10
593.8954024175187
 20
332.0580360513741
 30
0.0
 11
593.8954024175187
 21
326.1644335594715
 31
0.0
  0
LINE
  5
941F
330
249
100
AcDbEntity
  8
0
 62
     2
100
AcDbLine
 10
612.7325496226495
 20
326.1644335594715
 30
0.0
 11
593.8954024175187
 21
320.2708310675688
 31
0.0
  0
LINE
  5
9420
330
249
100
AcDbEntity
  8
0
 62
     2
100
AcDbLine
 10
593.8954024175187
 20
320.2708310675688
 30
0.0
 11
593.8954024175187
 21
326.1644335594715
 31
0.0
  0
LINE
  5
9422
330
249
100
AcDbEntity
  8
ALL_ASSEM_MEMBER
  6
Continuous
 62
     7
100
AcDbLine
 10
70.62677861443345
 20
256.1939917409945
 30
0.0
 11
294.6267785472335
 21
256.1939917409945
 31
0.0
  0
LINE
  5
9424
330
249
100
AcDbEntity
  8
ALL_ASSEM_MEMBER
  6
HIDDEN
 62
     8
100
AcDbLine
 10
358.3806800397065
 20
344.1939917829945
 30
0.0
 11
384.5554958050984
 21
315.0939943404944
 31
0.0
  0
LINE
  5
9425
330
249
100
AcDbEntity
  8
ALL_ASSEM_MEMBER
  6
HIDDEN
 62
     8
100
AcDbLine
 10
556.2058642203156
 20
285.2939891834947
 30
0.0
 11
582.3806799857066
 21
256.1939917409945
 31
0.0
  0
LINE
  5
9426
330
249
100
AcDbEntity
  8
ALL_ASSEM_MEMBER
  6
Continuous
 62
     7
100
AcDbLine
 10
360.3806800397065
 20
376.1939917409945
 30
0.0
 11
358.9806800397077
 21
376.1939917409945
 31
0.0
  0
ARC
  5
9427
330
249
100
AcDbEntity
  8
ALL_ASSEM_MEMBER
  6
Continuous
 62
     7
100
AcDbCircle
 10
358.9806800397077
 20
375.5939917409945
 30
0.0
 40
0.6
100
AcDbArc
 50
90.0
 51
180.0
  0
LINE
  5
9428
330
249
100
AcDbEntity
  8
ALL_ASSEM_MEMBER
  6
Continuous
 62
     7
100
AcDbLine
 10
360.3806800397065
 20
224.1939842829946
 30
0.0
 11
358.9806800397077
 21
224.1939842829946
 31
0.0
  0
ARC
  5
9429
330
249
100
AcDbEntity
  8
ALL_ASSEM_MEMBER
  6
Continuous
 62
     7
100
AcDbCircle
 10
358.9806800397077
 20
224.7939842829945
 30
0.0
 40
0.6
100
AcDbArc
 50
180.0
 51
270.0
  0
LINE
  5
942A
330
249
100
AcDbEntity
  8
ALL_ASSEM_MEMBER
  6
Continuous
 62
     7
100
AcDbLine
 10
580.3806799857066
 20
376.1939917409945
 30
0.0
 11
581.7806799857067
 21
376.1939917409945
 31
0.0
  0
ARC
  5
942B
330
249
100
AcDbEntity
  8
ALL_ASSEM_MEMBER
  6
Continuous
 62
     7
100
AcDbCircle
 10
581.7806799857067
 20
375.5939917409945
 30
0.0
 40
0.6
100
AcDbArc
 50
0.0
 51
90.0
  0
LINE
  5
942C
330
249
100
AcDbEntity
  8
ALL_ASSEM_MEMBER
  6
Continuous
 62
     7
100
AcDbLine
 10
580.3806799857066
 20
224.1939842829946
 30
0.0
 11
581.7806799857067
 21
224.1939842829946
 31
0.0
  0
ARC
  5
942D
330
249
100
AcDbEntity
  8
ALL_ASSEM_MEMBER
  6
Continuous
 62
     7
100
AcDbCircle
 10
581.7806799857067
 20
224.7939842829945
 30
0.0
 40
0.6
100
AcDbArc
 50
270.0
 51
0.0
  0
LINE
  5
942E
330
249
100
AcDbEntity
  8
0
 62
     2
100
AcDbLine
 10
186.8831014796029
 20
333.101345604584
 30
0.0
 11
149.609988002149
 21
313.8221489783145
 31
0.0
  0
LINE
  5
942F
330
249
100
AcDbEntity
  8
0
 62
     2
100
AcDbLine
 10
149.609988002149
 20
313.8221489783145
 30
0.0
 11
163.6338184369612
 21
327.7111678456068
 31
0.0
  0
LINE
  5
9430
330
249
100
AcDbEntity
  8
0
 62
     2
100
AcDbLine
 10
163.6338184369612
 20
327.7111678456068
 30
0.0
 11
166.3414744964731
 21
322.4763661305511
 31
0.0
  0
LINE
  5
9431
330
249
100
AcDbEntity
  8
0
 62
     2
100
AcDbLine
 10
149.609988002149
 20
313.8221489783145
 30
0.0
 11
169.0491305559841
 21
317.2415644154953
 31
0.0
  0
LINE
  5
9432
330
249
100
AcDbEntity
  8
0
 62
     2
100
AcDbLine
 10
169.0491305559841
 20
317.2415644154953
 30
0.0
 11
166.3414744964731
 21
322.4763661305511
 31
0.0
  0
ENDSEC
  0
SECTION
  2
OBJECTS
  0
DICTIONARY
  5
C
330
0
100
AcDbDictionary
281
     1
  3
ACAD_CIP_PREVIOUS_PRODUCT_INFO
350
9133
  3
ACAD_DETAILVIEWSTYLE
350
912F
  3
ACAD_GROUP
350
D
  3
ACAD_IMAGE_VARS
350
9242
  3
ACAD_LAYOUT
350
1A
  3
ACAD_MLINESTYLE
350
17
  3
ACAD_PLOTSETTINGS
350
19
  3
ACAD_PLOTSTYLENAME
350
E
  3
ACAD_SCALELIST
350
9119
  3
ACAD_SECTIONVIEWSTYLE
350
912D
  3
AcDbVariableDictionary
350
91E6
  3
APPDATA
350
9240
  3
DWGPROPS
350
9456
  0
DICTIONARY
  5
91DB
330
2
100
AcDbDictionary
280
     1
281
     1
  3
ACAD_LAYERSTATES
360
91DC
  0
DICTIONARY
  5
9144
330
10
100
AcDbDictionary
280
     1
281
     1
  3
ADSK_XREC_LAYER_RECONCILED
360
9145
  0
DICTIONARY
  5
915A
330
204
100
AcDbDictionary
280
     1
281
     1
  3
ADSK_XREC_LAYER_RECONCILED
360
915B
  0
DICTIONARY
  5
9190
330
21F
100
AcDbDictionary
280
     1
281
     1
  3
ADSK_XREC_LAYER_RECONCILED
360
9191
  0
DICTIONARY
  5
91A2
330
228
100
AcDbDictionary
280
     1
281
     1
  3
ADSK_XREC_LAYER_RECONCILED
360
91A3
  0
XRECORD
  5
9133
102
{ACAD_REACTORS
330
C
102
}
330
C
100
AcDbXrecord
280
     1
300
ACD
300
2015
300
ACD_F_S
  0
DICTIONARY
  5
912F
102
{ACAD_REACTORS
330
C
102
}
330
C
100
AcDbDictionary
281
     1
  3
Metric50
350
9130
  0
DICTIONARY
  5
D
102
{ACAD_REACTORS
330
C
102
}
330
C
100
AcDbDictionary
281
     1
  0
RASTERVARIABLES
  5
9242
102
{ACAD_REACTORS
330
C
102
}
330
C
100
AcDbRasterVariables
 90
        0
 70
     1
 71
     1
 72
     1
  0
DICTIONARY
  5
1A
102
{ACAD_REACTORS
330
C
102
}
330
C
100
AcDbDictionary
281
     1
  3
Layout1
350
90E0
  3
Model
350
90DF
  0
DICTIONARY
  5
17
102
{ACAD_REACTORS
330
C
102
}
330
C
100
AcDbDictionary
281
     1
  3
Standard
350
18
  0
DICTIONARY
  5
19
102
{ACAD_REACTORS
330
C
102
}
330
C
100
AcDbDictionary
281
     1
  0
ACDBDICTIONARYWDFLT
  5
E
102
{ACAD_REACTORS
330
C
102
}
330
C
100
AcDbDictionary
281
     1
  3
Normal
350
F
100
AcDbDictionaryWithDefault
340
F
  0
DICTIONARY
  5
9119
102
{ACAD_REACTORS
330
C
102
}
330
C
100
AcDbDictionary
281
     1
  3
A0
350
911A
  3
A1
350
911B
  3
A2
350
911C
  3
A3
350
911D
  3
A4
350
911E
  3
A5
350
911F
  3
A6
350
9120
  3
A7
350
9121
  3
A8
350
9122
  3
A9
350
9123
  3
B0
350
9124
  3
B1
350
9125
  3
B2
350
9126
  3
B3
350
9127
  3
B4
350
9128
  3
B5
350
9129
  3
B6
350
912A
  0
DICTIONARY
  5
912D
102
{ACAD_REACTORS
330
C
102
}
330
C
100
AcDbDictionary
281
     1
  3
Metric50
350
912E
  0
DICTIONARY
  5
91E6
102
{ACAD_REACTORS
330
C
102
}
330
C
100
AcDbDictionary
281
     1
  3
DIMASSOC
350
91F7
  3
INDEXCTL
350
91F6
  3
SORTENTS
350
91F5
  0
DICTIONARY
  5
9240
102
{ACAD_REACTORS
330
C
102
}
330
C
100
AcDbDictionary
281
     1
  0
XRECORD
  5
9456
102
{ACAD_REACTORS
330
C
102
}
330
C
100
AcDbXrecord
280
     1
  1
DWGPROPS COOKIE
  2

  3

  4

  6

  7

  8
d610igzo
  9

300
=
301
=
302
=
303
=
304
=
305
=
306
=
307
=
308
=
309
=
 40
0.0
 41
2457664.294111667
 42
2457837.527989641
  1

 90
        0
  0
DICTIONARY
  5
91DC
102
{ACAD_REACTORS
330
91DB
102
}
330
91DB
100
AcDbDictionary
281
     1
  0
XRECORD
  5
9145
102
{ACAD_REACTORS
330
9144
102
}
330
9144
100
AcDbXrecord
280
     1
290
     1
  0
XRECORD
  5
915B
102
{ACAD_REACTORS
330
915A
102
}
330
915A
100
AcDbXrecord
280
     1
290
     1
  0
XRECORD
  5
9191
102
{ACAD_REACTORS
330
9190
102
}
330
9190
100
AcDbXrecord
280
     1
290
     1
  0
XRECORD
  5
91A3
102
{ACAD_REACTORS
330
91A2
102
}
330
91A2
100
AcDbXrecord
280
     1
290
     1
  0
ACDBDETAILVIEWSTYLE
  5
9130
102
{ACAD_REACTORS
330
912F
102
}
102
{ACAD_XDICTIONARY
360
91E3
102
}
330
912F
100
AcDbModelDocViewStyle
 70
     0
  3
Metric50
290
     0
100
AcDbDetailViewStyle
 70
     0
 71
     0
 90
        3
 71
     1
340
11
 40
5.0
340
0
 40
5.0
300

 40
0.0
280
     1
 71
     2
340
16
 90
       25
 71
     3
340
11
 40
5.0
 90
        0
 40
15.0
 90
        1
300
%<\AcVar ViewDetailId>% (%<\AcVar ViewScale \f "%sn">%)
 71
     4
340
16
 90
       25
340
16
 90
       25
280
     0
  0
LAYOUT
  5
90E0
102
{ACAD_REACTORS
330
1A
102
}
330
1A
100
AcDbPlotSettings
  1

  2
none_device
  4
ISO_A2_(594.00_x_420.00_MM)
  6

 40
0.0
 41
0.0
 42
0.0
 43
0.0
 44
594.0
 45
420.0
 46
0.0
 47
0.0
 48
0.0
 49
0.0
140
0.0
141
0.0
142
1.0
143
1.0
 70
     0
 72
     1
 73
     0
 74
     0
  7

 75
     0
147
1.0
148
0.0
149
0.0
100
AcDbLayout
  1
Layout1
 70
     1
 71
     1
 10
0.0
 20
0.0
 11
12.0
 21
9.0
 12
0.0
 22
0.0
 32
0.0
 14
1.000000000000000E+20
 24
1.000000000000000E+20
 34
1.000000000000000E+20
 15
-1.000000000000000E+20
 25
-1.000000000000000E+20
 35
-1.000000000000000E+20
146
0.0
 13
0.0
 23
0.0
 33
0.0
 16
1.0
 26
0.0
 36
0.0
 17
0.0
 27
1.0
 37
0.0
 76
     0
330
24A
  0
LAYOUT
  5
90DF
102
{ACAD_REACTORS
330
1A
102
}
330
1A
100
AcDbPlotSettings
  1

  2
none_device
  4
ISO_A2_(594.00_x_420.00_MM)
  6

 40
0.0
 41
0.0
 42
0.0
 43
0.0
 44
594.0
 45
420.0
 46
0.0
 47
0.0
 48
0.0
 49
0.0
140
0.0
141
0.0
142
1.0
143
1.0
 70
  1024
 72
     1
 73
     0
 74
     0
  7

 75
     0
147
1.0
148
0.0
149
0.0
100
AcDbLayout
  1
Model
 70
     0
 71
     0
 10
36.1390071405537
 20
-104.9471581503215
 11
641.1758328535385
 21
467.2992102250714
 12
0.0
 22
0.0
 32
0.0
 14
63.56795561443334
 24
-94.49534494992434
 34
0.0
 15
612.7325496226495
 25
440.9939917207745
 35
0.0
146
0.0
 13
0.0
 23
0.0
 33
0.0
 16
1.0
 26
0.0
 36
0.0
 17
0.0
 27
1.0
 37
0.0
 76
     0
330
249
331
1F4
  0
MLINESTYLE
  5
18
102
{ACAD_REACTORS
330
17
102
}
330
17
100
AcDbMlineStyle
  2
STANDARD
 70
     0
  3

 62
   256
 51
90.0
 52
90.0
 71
     2
 49
0.5
 62
   256
  6
BYLAYER
 49
-0.5
 62
   256
  6
BYLAYER
  0
ACDBPLACEHOLDER
  5
F
102
{ACAD_REACTORS
330
E
102
}
330
E
  0
SCALE
  5
911A
102
{ACAD_REACTORS
330
9119
102
}
330
9119
100
AcDbScale
 70
     0
300
1:1
140
1.0
141
1.0
290
     1
  0
SCALE
  5
911B
102
{ACAD_REACTORS
330
9119
102
}
330
9119
100
AcDbScale
 70
     0
300
1:2
140
1.0
141
2.0
290
     0
  0
SCALE
  5
911C
102
{ACAD_REACTORS
330
9119
102
}
330
9119
100
AcDbScale
 70
     0
300
1:4
140
1.0
141
4.0
290
     0
  0
SCALE
  5
911D
102
{ACAD_REACTORS
330
9119
102
}
330
9119
100
AcDbScale
 70
     0
300
1:5
140
1.0
141
5.0
290
     0
  0
SCALE
  5
911E
102
{ACAD_REACTORS
330
9119
102
}
330
9119
100
AcDbScale
 70
     0
300
1:8
140
1.0
141
8.0
290
     0
  0
SCALE
  5
911F
102
{ACAD_REACTORS
330
9119
102
}
330
9119
100
AcDbScale
 70
     0
300
1:10
140
1.0
141
10.0
290
     0
  0
SCALE
  5
9120
102
{ACAD_REACTORS
330
9119
102
}
330
9119
100
AcDbScale
 70
     0
300
1:16
140
1.0
141
16.0
290
     0
  0
SCALE
  5
9121
102
{ACAD_REACTORS
330
9119
102
}
330
9119
100
AcDbScale
 70
     0
300
1:20
140
1.0
141
20.0
290
     0
  0
SCALE
  5
9122
102
{ACAD_REACTORS
330
9119
102
}
330
9119
100
AcDbScale
 70
     0
300
1:30
140
1.0
141
30.0
290
     0
  0
SCALE
  5
9123
102
{ACAD_REACTORS
330
9119
102
}
330
9119
100
AcDbScale
 70
     0
300
1:40
140
1.0
141
40.0
290
     0
  0
SCALE
  5
9124
102
{ACAD_REACTORS
330
9119
102
}
330
9119
100
AcDbScale
 70
     0
300
1:50
140
1.0
141
50.0
290
     0
  0
SCALE
  5
9125
102
{ACAD_REACTORS
330
9119
102
}
330
9119
100
AcDbScale
 70
     0
300
1:100
140
1.0
141
100.0
290
     0
  0
SCALE
  5
9126
102
{ACAD_REACTORS
330
9119
102
}
330
9119
100
AcDbScale
 70
     0
300
2:1
140
2.0
141
1.0
290
     0
  0
SCALE
  5
9127
102
{ACAD_REACTORS
330
9119
102
}
330
9119
100
AcDbScale
 70
     0
300
4:1
140
4.0
141
1.0
290
     0
  0
SCALE
  5
9128
102
{ACAD_REACTORS
330
9119
102
}
330
9119
100
AcDbScale
 70
     0
300
8:1
140
8.0
141
1.0
290
     0
  0
SCALE
  5
9129
102
{ACAD_REACTORS
330
9119
102
}
330
9119
100
AcDbScale
 70
     0
300
10:1
140
10.0
141
1.0
290
     0
  0
SCALE
  5
912A
102
{ACAD_REACTORS
330
9119
102
}
330
9119
100
AcDbScale
 70
     0
300
100:1
140
100.0
141
1.0
290
     0
  0
ACDBSECTIONVIEWSTYLE
  5
912E
102
{ACAD_REACTORS
330
912D
102
}
102
{ACAD_XDICTIONARY
360
91E1
102
}
330
912D
100
AcDbModelDocViewStyle
 70
     0
  3
Metric50
290
     0
100
AcDbSectionViewStyle
 70
     0
 71
     0
 90
      102
 71
     1
340
11
 40
5.0
340
0
340
0
 40
5.0
300
I, O, Q, S, X, Z
 40
10.0
 90
        0
 40
2.5
 90
        0
 71
     2
340
16
 90
       25
340
16
 90
       50
 40
5.0
 40
2.5
 40
5.0
 71
     3
340
11
 40
5.0
 90
        0
 40
15.0
 90
        1
300
%<\AcVar ViewSectionStartId>%-%<\AcVar ViewSectionEndId>% (%<\AcVar ViewScale \f "%sn">%)
 71
     4
300
ANSI31
 40
1.0
 90
        0
290
     0
290
     0
 90
        6
 40
0.0
 40
1.570796326794896
 40
0.2617993877991494
 40
1.308996938995747
 40
-0.2617993877991494
 40
1.832595714594046
  0
DICTIONARYVAR
  5
91F7
102
{ACAD_REACTORS
330
91E6
102
}
330
91E6
100
DictionaryVariables
280
     0
  1
1
  0
DICTIONARYVAR
  5
91F6
102
{ACAD_REACTORS
330
91E6
102
}
330
91E6
100
DictionaryVariables
280
     0
  1
0
  0
DICTIONARYVAR
  5
91F5
102
{ACAD_REACTORS
330
91E6
102
}
330
91E6
100
DictionaryVariables
280
     0
  1
127
  0
DICTIONARY
  5
91E3
330
9130
100
AcDbDictionary
280
     1
281
     1
  3
ACAD_XREC_ROUNDTRIP
360
9457
  0
DICTIONARY
  5
91E1
330
912E
100
AcDbDictionary
280
     1
281
     1
  3
ACAD_XREC_ROUNDTRIP
360
9458
  0
XRECORD
  5
9457
102
{ACAD_REACTORS
330
91E3
102
}
330
91E3
100
AcDbXrecord
280
     1
102
DISPLAYNAME
  1
Metric50
102
FLAGS
 90
        0
  0
XRECORD
  5
9458
102
{ACAD_REACTORS
330
91E1
102
}
330
91E1
100
AcDbXrecord
280
     1
102
DISPLAYNAME
  1
Metric50
102
FLAGS
 90
        0
  0
ENDSEC
  0
EOF
