  0
SECTION
  2
HEADER
  9
$ACADVER
  1
AC1015
  9
$ACADMAINTVER
 70
     6
  9
$DWGCODEPAGE
  3
ANSI_1252
  9
$INSBASE
 10
0.0
 20
0.0
 30
0.0
  9
$EXTMIN
 10
23.49053543989999
 20
63.2104445607
 30
0.0
  9
$EXTMAX
 10
532.1432679586999
 20
410.5481342211
 30
0.0
  9
$LIMMIN
 10
1424.918103842792
 20
541.9218351853252
  9
$LIMMAX
 10
1943.908522017672
 20
1051.873233014634
  9
$ORTHOMODE
 70
     1
  9
$REGENMODE
 70
     1
  9
$FILLMODE
 70
     1
  9
$QTEXTMODE
 70
     0
  9
$MIRRTEXT
 70
     0
  9
$LTSCALE
 40
32.67
  9
$ATTMODE
 70
     1
  9
$TEXTSIZE
 40
0.2
  9
$TRACEWID
 40
0.05
  9
$TEXTSTYLE
  7
STANDARD
  9
$CLAYER
  8
0
  9
$CELTYPE
  6
BYLAYER
  9
$CECOLOR
 62
   256
  9
$CELTSCALE
 40
1.0
  9
$DISPSILH
 70
     0
  9
$DIMSCALE
 40
1.0
  9
$DIMASZ
 40
3.5
  9
$DIMEXO
 40
0.0
  9
$DIMDLI
 40
22.572
  9
$DIMRND
 40
0.0
  9
$DIMDLE
 40
0.0
  9
$DIMEXE
 40
1.0
  9
$DIMTP
 40
0.01
  9
$DIMTM
 40
0.01
  9
$DIMTXT
 40
2.5
  9
$DIMCEN
 40
5.346
  9
$DIMTSZ
 40
0.0
  9
$DIMTOL
 70
     1
  9
$DIMLIM
 70
     0
  9
$DIMTIH
 70
     1
  9
$DIMTOH
 70
     1
  9
$DIMSE1
 70
     0
  9
$DIMSE2
 70
     0
  9
$DIMTAD
 70
     0
  9
$DIMZIN
 70
     0
  9
$DIMBLK
  1
FILLED
  9
$DIMASO
 70
     1
  9
$DIMSHO
 70
     1
  9
$DIMPOST
  1

  9
$DIMAPOST
  1

  9
$DIMALT
 70
     0
  9
$DIMALTD
 70
     2
  9
$DIMALTF
 40
25.4
  9
$DIMLFAC
 40
1.0
  9
$DIMTOFL
 70
     0
  9
$DIMTVP
 40
0.0
  9
$DIMTIX
 70
     0
  9
$DIMSOXD
 70
     0
  9
$DIMSAH
 70
     0
  9
$DIMBLK1
  1

  9
$DIMBLK2
  1

  9
$DIMSTYLE
  2
STANDARD
  9
$DIMCLRD
 70
     0
  9
$DIMCLRE
 70
     0
  9
$DIMCLRT
 70
     0
  9
$DIMTFAC
 40
1.0
  9
$DIMGAP
 40
0.625
  9
$DIMJUST
 70
     0
  9
$DIMSD1
 70
     0
  9
$DIMSD2
 70
     0
  9
$DIMTOLJ
 70
     1
  9
$DIMTZIN
 70
     0
  9
$DIMALTZ
 70
     0
  9
$DIMALTTZ
 70
     0
  9
$DIMUPT
 70
     0
  9
$DIMDEC
 70
     4
  9
$DIMTDEC
 70
     4
  9
$DIMALTU
 70
     2
  9
$DIMALTTD
 70
     2
  9
$DIMTXSTY
  7
STANDARD
  9
$DIMAUNIT
 70
     0
  9
$DIMADEC
 70
     0
  9
$DIMALTRND
 40
0.0
  9
$DIMAZIN
 70
     0
  9
$DIMDSEP
 70
    44
  9
$DIMATFIT
 70
     3
  9
$DIMFRAC
 70
     0
  9
$DIMLDRBLK
  1

  9
$DIMLUNIT
 70
     2
  9
$DIMLWD
 70
    -2
  9
$DIMLWE
 70
    -2
  9
$DIMTMOVE
 70
     0
  9
$LUNITS
 70
     2
  9
$LUPREC
 70
     4
  9
$SKETCHINC
 40
0.1
  9
$FILLETRAD
 40
0.0
  9
$AUNITS
 70
     0
  9
$AUPREC
 70
     0
  9
$MENU
  1
.
  9
$ELEVATION
 40
0.0
  9
$PELEVATION
 40
0.0
  9
$THICKNESS
 40
0.0
  9
$LIMCHECK
 70
     0
  9
$CHAMFERA
 40
0.0
  9
$CHAMFERB
 40
0.0
  9
$CHAMFERC
 40
0.0
  9
$CHAMFERD
 40
0.0
  9
$SKPOLY
 70
     0
  9
$TDCREATE
 40
2457664.374170428
  9
$TDUCREATE
 40
2457664.290837095
  9
$TDUPDATE
 40
2457671.724763576
  9
$TDUUPDATE
 40
2457671.641430243
  9
$TDINDWG
 40
0.0311287153
  9
$TDUSRTIMER
 40
2457671.632519444
  9
$USRTIMER
 70
     1
  9
$ANGBASE
 50
0.0
  9
$ANGDIR
 70
     0
  9
$PDMODE
 70
     3
  9
$PDSIZE
 40
6.0
  9
$PLINEWID
 40
0.0
  9
$SPLFRAME
 70
     0
  9
$SPLINETYPE
 70
     6
  9
$SPLINESEGS
 70
     8
  9
$HANDSEED
  5
86FB
  9
$SURFTAB1
 70
     6
  9
$SURFTAB2
 70
     6
  9
$SURFTYPE
 70
     6
  9
$SURFU
 70
     6
  9
$SURFV
 70
     6
  9
$UCSBASE
  2

  9
$UCSNAME
  2

  9
$UCSORG
 10
0.0
 20
0.0
 30
0.0
  9
$UCSXDIR
 10
1.0
 20
0.0
 30
0.0
  9
$UCSYDIR
 10
0.0
 20
1.0
 30
0.0
  9
$UCSORTHOREF
  2

  9
$UCSORTHOVIEW
 70
     0
  9
$UCSORGTOP
 10
0.0
 20
0.0
 30
0.0
  9
$UCSORGBOTTOM
 10
0.0
 20
0.0
 30
0.0
  9
$UCSORGLEFT
 10
0.0
 20
0.0
 30
0.0
  9
$UCSORGRIGHT
 10
0.0
 20
0.0
 30
0.0
  9
$UCSORGFRONT
 10
0.0
 20
0.0
 30
0.0
  9
$UCSORGBACK
 10
0.0
 20
0.0
 30
0.0
  9
$PUCSBASE
  2

  9
$PUCSNAME
  2

  9
$PUCSORG
 10
0.0
 20
0.0
 30
0.0
  9
$PUCSXDIR
 10
1.0
 20
0.0
 30
0.0
  9
$PUCSYDIR
 10
0.0
 20
1.0
 30
0.0
  9
$PUCSORTHOREF
  2

  9
$PUCSORTHOVIEW
 70
     0
  9
$PUCSORGTOP
 10
0.0
 20
0.0
 30
0.0
  9
$PUCSORGBOTTOM
 10
0.0
 20
0.0
 30
0.0
  9
$PUCSORGLEFT
 10
0.0
 20
0.0
 30
0.0
  9
$PUCSORGRIGHT
 10
0.0
 20
0.0
 30
0.0
  9
$PUCSORGFRONT
 10
0.0
 20
0.0
 30
0.0
  9
$PUCSORGBACK
 10
0.0
 20
0.0
 30
0.0
  9
$USERI1
 70
     0
  9
$USERI2
 70
     0
  9
$USERI3
 70
     0
  9
$USERI4
 70
     0
  9
$USERI5
 70
     0
  9
$USERR1
 40
0.0
  9
$USERR2
 40
0.0
  9
$USERR3
 40
0.0
  9
$USERR4
 40
0.0
  9
$USERR5
 40
0.0
  9
$WORLDVIEW
 70
     1
  9
$SHADEDGE
 70
     3
  9
$SHADEDIF
 70
    70
  9
$TILEMODE
 70
     1
  9
$MAXACTVP
 70
    64
  9
$PINSBASE
 10
0.0
 20
0.0
 30
0.0
  9
$PLIMCHECK
 70
     0
  9
$PEXTMIN
 10
1.000000000000000E+20
 20
1.000000000000000E+20
 30
1.000000000000000E+20
  9
$PEXTMAX
 10
-1.000000000000000E+20
 20
-1.000000000000000E+20
 30
-1.000000000000000E+20
  9
$PLIMMIN
 10
0.0
 20
0.0
  9
$PLIMMAX
 10
594.0
 20
420.0
  9
$UNITMODE
 70
     0
  9
$VISRETAIN
 70
     1
  9
$PLINEGEN
 70
     0
  9
$PSLTSCALE
 70
     1
  9
$TREEDEPTH
 70
  3020
  9
$CMLSTYLE
  2
Standard
  9
$CMLJUST
 70
     0
  9
$CMLSCALE
 40
1.0
  9
$PROXYGRAPHICS
 70
     1
  9
$MEASUREMENT
 70
     1
  9
$CELWEIGHT
370
    -1
  9
$ENDCAPS
280
     0
  9
$JOINSTYLE
280
     0
  9
$LWDISPLAY
290
     0
  9
$INSUNITS
 70
     4
  9
$HYPERLINKBASE
  1

  9
$STYLESHEET
  1

  9
$XEDIT
290
     1
  9
$CEPSNTYPE
380
     0
  9
$PSTYLEMODE
290
     1
  9
$FINGERPRINTGUID
  2
{8975FC1F-D346-495D-A01B-CA8D2E0F5AA3}
  9
$VERSIONGUID
  2
{197A3136-5B09-44E4-93DA-7F40A6828E0E}
  9
$EXTNAMES
290
     1
  9
$PSVPSCALE
 40
0.0
  9
$OLESTARTUP
290
     0
  0
ENDSEC
  0
SECTION
  2
CLASSES
  0
CLASS
  1
ACDBDICTIONARYWDFLT
  2
AcDbDictionaryWithDefault
  3
ObjectDBX Classes
 90
        0
280
     0
281
     0
  0
CLASS
  1
ACDBPLACEHOLDER
  2
AcDbPlaceHolder
  3
ObjectDBX Classes
 90
        0
280
     0
281
     0
  0
CLASS
  1
LAYOUT
  2
AcDbLayout
  3
ObjectDBX Classes
 90
        0
280
     0
281
     0
  0
CLASS
  1
MATERIAL
  2
AcDbMaterial
  3
ObjectDBX Classes
 90
     1153
280
     0
281
     0
  0
CLASS
  1
VISUALSTYLE
  2
AcDbVisualStyle
  3
ObjectDBX Classes
 90
     4095
280
     0
281
     0
  0
CLASS
  1
TABLESTYLE
  2
AcDbTableStyle
  3
ObjectDBX Classes
 90
     4095
280
     0
281
     0
  0
CLASS
  1
SCALE
  2
AcDbScale
  3
ObjectDBX Classes
 90
     1153
280
     0
281
     0
  0
CLASS
  1
MLEADERSTYLE
  2
AcDbMLeaderStyle
  3
ACDB_MLEADERSTYLE_CLASS
 90
     4095
280
     0
281
     0
  0
CLASS
  1
ACDBSECTIONVIEWSTYLE
  2
AcDbSectionViewStyle
  3
ObjectDBX Classes
 90
     1025
280
     1
281
     0
  0
CLASS
  1
ACDBDETAILVIEWSTYLE
  2
AcDbDetailViewStyle
  3
ObjectDBX Classes
 90
     1025
280
     1
281
     0
  0
CLASS
  1
DICTIONARYVAR
  2
AcDbDictionaryVar
  3
ObjectDBX Classes
 90
        0
280
     0
281
     0
  0
CLASS
  1
CELLSTYLEMAP
  2
AcDbCellStyleMap
  3
ObjectDBX Classes
 90
     1152
280
     0
281
     0
  0
CLASS
  1
SUN
  2
AcDbSun
  3
SCENEOE
 90
     1153
280
     0
281
     0
  0
CLASS
  1
RASTERVARIABLES
  2
AcDbRasterVariables
  3
ISM
 90
        0
280
     0
281
     0
  0
CLASS
  1
SORTENTSTABLE
  2
AcDbSortentsTable
  3
ObjectDBX Classes
 90
        0
280
     0
281
     0
  0
ENDSEC
  0
SECTION
  2
TABLES
  0
TABLE
  2
VPORT
  5
8
330
0
100
AcDbSymbolTable
 70
     1
  0
VPORT
  5
1F4
330
8
100
AcDbSymbolTableRecord
100
AcDbViewportTableRecord
  2
*ACTIVE
 70
     0
 10
0.0
 20
0.0
 11
1.0
 21
1.0
 12
1665.582020543625
 22
826.2743502230859
 13
0.0
 23
0.0
 14
1.0
 24
1.0
 15
0.0
 25
0.0
 16
0.0
 26
0.0
 36
1.0
 17
0.0
 27
0.0
 37
0.0
 40
651.5627165765906
 41
1.941040462427746
 42
50.0
 43
0.0
 44
0.0
 50
0.0
 51
0.0
 71
    16
 72
   100
 73
     1
 74
     1
 75
     0
 76
     0
 77
     0
 78
     0
281
     0
 65
     1
110
0.0
120
0.0
130
0.0
111
1.0
121
0.0
131
0.0
112
0.0
122
1.0
132
0.0
 79
     0
146
0.0
1001
ACAD_NAV_VCDISPLAY
1070
     3
  0
ENDTAB
  0
TABLE
  2
LTYPE
  5
5
330
0
100
AcDbSymbolTable
 70
     6
  0
LTYPE
  5
14
330
5
100
AcDbSymbolTableRecord
100
AcDbLinetypeTableRecord
  2
BYBLOCK
 70
     0
  3

 72
    65
 73
     0
 40
0.0
  0
LTYPE
  5
15
330
5
100
AcDbSymbolTableRecord
100
AcDbLinetypeTableRecord
  2
BYLAYER
 70
     0
  3

 72
    65
 73
     0
 40
0.0
  0
LTYPE
  5
16
330
5
100
AcDbSymbolTableRecord
100
AcDbLinetypeTableRecord
  2
CONTINUOUS
 70
     0
  3
Solid line
 72
    65
 73
     0
 40
0.0
  0
LTYPE
  5
1F5
330
5
100
AcDbSymbolTableRecord
100
AcDbLinetypeTableRecord
  2
CENTER
 70
     0
  3
____ _ ____ _ ____ _ ____ _ ____ _ ____ _ ____
 72
    65
 73
     4
 40
0.6
 49
0.375
 74
     0
 49
-0.075
 74
     0
 49
0.075
 74
     0
 49
-0.075
 74
     0
  0
LTYPE
  5
1F6
330
5
100
AcDbSymbolTableRecord
100
AcDbLinetypeTableRecord
  2
HIDDEN
 70
     0
  3
- - - - - - - - - - - - - - - - - - - -
 72
    65
 73
     2
 40
0.2
 49
0.1
 74
     0
 49
-0.1
 74
     0
  0
ENDTAB
  0
TABLE
  2
LAYER
  5
2
102
{ACAD_XDICTIONARY
360
845A
102
}
330
0
100
AcDbSymbolTable
 70
    75
  0
LAYER
  5
10
102
{ACAD_XDICTIONARY
360
83C3
102
}
330
2
100
AcDbSymbolTableRecord
100
AcDbLayerTableRecord
  2
0
 70
     0
 62
     7
  6
CONTINUOUS
370
    -3
390
F
  0
LAYER
  5
204
102
{ACAD_XDICTIONARY
360
83D9
102
}
330
2
100
AcDbSymbolTableRecord
100
AcDbLayerTableRecord
  2
02___PRT_ALL_AXES
 70
     0
 62
     7
  6
CONTINUOUS
370
    -3
390
F
  0
LAYER
  5
21F
102
{ACAD_XDICTIONARY
360
840F
102
}
330
2
100
AcDbSymbolTableRecord
100
AcDbLayerTableRecord
  2
ALL_ASSEM_MEMBER
 70
     0
 62
     7
  6
CONTINUOUS
370
    -3
390
F
  0
LAYER
  5
228
102
{ACAD_XDICTIONARY
360
8421
102
}
330
2
100
AcDbSymbolTableRecord
100
AcDbLayerTableRecord
  2
ALL_DETAIL_ITEM
 70
     0
 62
     7
  6
CONTINUOUS
370
    -3
390
F
  0
ENDTAB
  0
TABLE
  2
STYLE
  5
3
330
0
100
AcDbSymbolTable
 70
     6
  0
STYLE
  5
11
330
3
100
AcDbSymbolTableRecord
100
AcDbTextStyleTableRecord
  2
STANDARD
 70
     0
 40
0.0
 41
0.6
 50
0.0
 71
     0
 42
0.2
  3
txt
  4

  0
ENDTAB
  0
TABLE
  2
VIEW
  5
6
330
0
100
AcDbSymbolTable
 70
     0
  0
ENDTAB
  0
TABLE
  2
UCS
  5
7
330
0
100
AcDbSymbolTable
 70
     0
  0
ENDTAB
  0
TABLE
  2
APPID
  5
9
330
0
100
AcDbSymbolTable
 70
     3
  0
APPID
  5
248
330
9
100
AcDbSymbolTableRecord
100
AcDbRegAppTableRecord
  2
ACAD
 70
     0
  0
APPID
  5
83AD
330
9
100
AcDbSymbolTableRecord
100
AcDbRegAppTableRecord
  2
ACAD_NAV_VCDISPLAY
 70
     0
  0
APPID
  5
84BC
330
9
100
AcDbSymbolTableRecord
100
AcDbRegAppTableRecord
  2
ACAD_MLEADERVER
 70
     0
  0
ENDTAB
  0
TABLE
  2
DIMSTYLE
  5
A
330
0
100
AcDbSymbolTable
 70
    18
100
AcDbDimStyleTable
  0
DIMSTYLE
105
2AA
330
A
100
AcDbSymbolTableRecord
100
AcDbDimStyleTableRecord
  2
STANDARD
 70
     0
 41
3.5
 42
0.0
 44
1.0
 47
0.01
 48
0.01
 71
     1
 73
     0
 74
     0
 77
     1
 78
     8
140
2.5
147
0.625
178
     0
271
     2
272
     2
278
    44
284
     8
340
11
341
24B
342
24B
343
24B
344
24B
  0
ENDTAB
  0
TABLE
  2
BLOCK_RECORD
  5
1
330
0
100
AcDbSymbolTable
 70
    75
  0
BLOCK_RECORD
  5
249
330
1
100
AcDbSymbolTableRecord
100
AcDbBlockTableRecord
  2
*Model_Space
340
8358
  0
BLOCK_RECORD
  5
24A
330
1
100
AcDbSymbolTableRecord
100
AcDbBlockTableRecord
  2
*Paper_Space
340
8359
  0
BLOCK_RECORD
  5
24B
330
1
100
AcDbSymbolTableRecord
100
AcDbBlockTableRecord
  2
_FILLED
340
0
102
{BLKREFS
331
39B
331
39C
331
3A2
331
3A3
331
3A9
331
3AA
331
3B3
331
3B4
331
3BC
331
3BD
331
3C5
331
3C6
331
3CD
331
3CE
331
3DD
331
3DE
331
3E4
331
3E5
331
3ED
331
3EE
331
3F8
331
3F9
331
444
331
445
331
44B
331
44C
331
455
331
456
331
4AC
331
4AD
331
4B4
331
4B5
331
4C7
331
4C8
331
4CD
331
4D2
331
4DC
331
4DD
331
4E7
331
4E8
331
4EF
331
4F0
331
546
331
547
331
54F
331
550
331
558
331
559
331
561
331
562
331
0
331
56C
331
575
331
576
331
8501
331
8502
331
583
331
584
331
84CC
331
84CD
331
84DA
331
84DB
331
850F
331
8510
331
851D
331
851E
331
56D
331
86CC
331
86CB
331
86F5
331
86F4
102
}
  0
ENDTAB
  0
ENDSEC
  0
SECTION
  2
BLOCKS
  0
BLOCK
  5
20
330
249
100
AcDbEntity
  8
0
100
AcDbBlockBegin
  2
*Model_Space
 70
     0
 10
0.0
 20
0.0
 30
0.0
  3
*Model_Space
  1
*Model_Space
  0
ENDBLK
  5
21
330
249
100
AcDbEntity
  8
0
100
AcDbBlockEnd
  0
BLOCK
  5
1C
330
24A
100
AcDbEntity
 67
     1
  8
0
100
AcDbBlockBegin
  2
*Paper_Space
 70
     0
 10
0.0
 20
0.0
 30
0.0
  3
*Paper_Space
  1
*Paper_Space
  0
ENDBLK
  5
1D
330
24A
100
AcDbEntity
 67
     1
  8
0
100
AcDbBlockEnd
  0
BLOCK
  5
38E
330
24B
100
AcDbEntity
  8
0
100
AcDbBlockBegin
  2
_FILLED
 70
     0
 10
0.0
 20
0.0
 30
0.0
  3
_FILLED
  1
_FILLED
  0
SOLID
  5
38F
330
24B
100
AcDbEntity
  8
0
  6
ByBlock
 62
     0
100
AcDbTrace
 10
0.0
 20
0.0
 30
0.0
 11
-1.0
 21
0.2142857143
 31
0.0
 12
-1.0
 22
-0.2142857143
 32
0.0
 13
-1.0
 23
-0.2142857143
 33
0.0
  0
ENDBLK
  5
390
330
24B
100
AcDbEntity
  8
0
  6
ByBlock
 62
     0
100
AcDbBlockEnd
  0
ENDSEC
  0
SECTION
  2
ENTITIES
  0
HATCH
  5
599
330
249
100
AcDbEntity
  8
0
  6
Continuous
 62
     2
100
AcDbHatch
 10
0.0
 20
0.0
 30
0.0
210
0.0
220
0.0
230
1.0
  2
DEFAULT__8
 70
     0
 71
     0
 91
        1
 92
        2
 72
     0
 73
     0
 93
      320
 10
279.5565226452
 20
354.9700913539
 10
280.2913695681001
 20
354.9700913539
 10
280.3923209565001
 20
354.8950913539
 10
280.3923163481
 20
354.8958267248
 10
280.3923025136
 20
354.8965619553
 10
280.3922794387
 20
354.8972970934
 10
280.3922471092
 20
354.8980321871
 10
280.3922055109
 20
354.8987672842
 10
280.3921546297
 20
354.8995024328
 10
280.3920944545
 20
354.900237649
 10
280.3920249865
 20
354.9009728206
 10
280.3919462302
 20
354.9017078039
 10
280.39185819
 20
354.9024424549
 10
280.3917608702
 20
354.9031766296
 10
280.3916542753
 20
354.9039101842
 10
280.3915384022
 20
354.9046430131
 10
280.3914132184999
 20
354.9053751645
 10
280.3912786844
 20
354.9061067248
 10
280.3911347599
 20
354.9068377807
 10
280.3909814052
 20
354.9075684185
 10
280.3908185805
 20
354.9082987248
 10
280.3906462482
 20
354.9090287566
 10
280.3904643807
 20
354.9097584525
 10
280.3902729529
 20
354.9104877214
 10
280.3900719394
 20
354.9112164723001
 10
280.3898613151
 20
354.9119446142
 10
280.3896410548
 20
354.9126720563
 10
280.3894111354
 20
354.9133987088
 10
280.3891715434
 20
354.9141244883
 10
280.3889222675
 20
354.9148493127
 10
280.3886632962
 20
354.9155731
 10
280.3883946183
 20
354.9162957680001
 10
280.3881162224
 20
354.9170172346
 10
280.3878280832
 20
354.9177374412
 10
280.3875301202
 20
354.9184564219
 10
280.3872222386
 20
354.9191742342
 10
280.3869043438
 20
354.9198909358
 10
280.3865763413
 20
354.9206065842
 10
280.3862381365
 20
354.9213212368
 10
280.3858896515
 20
354.9220349137
 10
280.3855308758
 20
354.9227474844999
 10
280.3851618157
 20
354.9234587815
 10
280.3847824774
 20
354.9241686366999
 10
280.3843928673
 20
354.9248768824
 10
280.3839929915
 20
354.9255833506
 10
280.3835828421
 20
354.9262879003
 10
280.3831623539
 20
354.9269904978
 10
280.3827314476
 20
354.9276911361
 10
280.3822900437
 20
354.9283898081
 10
280.3818380628
 20
354.9290865071
 10
280.3813754256
 20
354.9297812258999
 10
280.380902054
 20
354.9304739475
 10
280.380417875
 20
354.9311646133
 10
280.3799228171
 20
354.9318531547001
 10
280.3794168087
 20
354.9325395032
 10
280.3788997784
 20
354.9332235901
 10
280.3783716544
 20
354.9339053467
 10
280.3778323778
 20
354.9345846912
 10
280.3772819394
 20
354.9352614891
 10
280.3767203426
 20
354.9359355926
 10
280.3761475908
 20
354.9366068542
 10
280.3755636874
 20
354.9372751261
 10
280.3749686357
 20
354.9379402606
 10
280.3744497049
 20
354.9385077815
 10
280.3739224927
 20
354.9390728841
 10
280.3733869055
 20
354.9396355634
 10
280.3728428500999
 20
354.9401958147
 10
280.3722902329
 20
354.9407536331
 10
280.3717289605
 20
354.9413090137
 10
280.3711589397
 20
354.9418619518
 10
280.3705800969
 20
354.9424124223
 10
280.369992439
 20
354.9429603199
 10
280.3693959929
 20
354.9435055189
 10
280.3687907854
 20
354.9440478938
 10
280.3681768436
 20
354.9445873192
 10
280.3675541941999
 20
354.9451236694
 10
280.3669228641
 20
354.9456568189
 10
280.3662828627
 20
354.9461866568
 10
280.3656341295
 20
354.946713131
 10
280.3649765866
 20
354.9472362042
 10
280.3643101558
 20
354.9477558387
 10
280.3636347593
 20
354.9482719974
 10
280.362950319
 20
354.9487846426
 10
280.3622567569
 20
354.949293737
 10
280.3615540098
 20
354.9497992306
 10
280.360842074
 20
354.9503010233
 10
280.3601209602
 20
354.9507990027
 10
280.3593906796
 20
354.9512930562
 10
280.358651243
 20
354.9517830711
 10
280.3579026615
 20
354.9522689349
 10
280.3571449459
 20
354.9527505352
 10
280.3563781011
 20
354.953227764
 10
280.3556021074
 20
354.9537005327
 10
280.354816939
 20
354.9541687575
 10
280.35402257
 20
354.9546323546
 10
280.3532189746
 20
354.9550912401
 10
280.352406127
 20
354.9555453301
 10
280.3515840014
 20
354.9559945407
 10
280.3507525731
 20
354.9564387862
 10
280.3499118222
 20
354.9568779722
 10
280.3490617303
 20
354.9573120025
 10
280.3482022786
 20
354.957740781
 10
280.3473334485
 20
354.9581642112
 10
280.3464552214
 20
354.9585821971
 10
280.3455675786
 20
354.9589946423
 10
280.3446705081
 20
354.9594014478
 10
280.3437640236
 20
354.9598025037
 10
280.3428481456
 20
354.960197697
 10
280.3419228942
 20
354.9605869151999
 10
280.3409882899
 20
354.9609700453
 10
280.3400443529
 20
354.9613469746
 10
280.3390911036
 20
354.9617175903
 10
280.3381285625
 20
354.9620817798
 10
280.3371567505
 20
354.9624394309
 10
280.3361756888
 20
354.9627904316
 10
280.3351853986
 20
354.9631346697
 10
280.3341859009
 20
354.9634720332
 10
280.333177217
 20
354.96380241
 10
280.332159368
 20
354.9641256882
 10
280.3311323917
 20
354.964441753
 10
280.3300963929
 20
354.9647504795
 10
280.3290514928
 20
354.9650517401
 10
280.3279978128
 20
354.9653454075
 10
280.3269354744
 20
354.9656313539
 10
280.325864599
 20
354.9659094519
 10
280.3247853078
 20
354.9661795739
 10
280.3238341057
 20
354.9664092917
 10
280.3228765493
 20
354.9666327443
 10
280.3219126347
 20
354.9668498706
 10
280.320942358
 20
354.9670606096
 10
280.3199657151
 20
354.9672649003
 10
280.3189827022
 20
354.9674626816
 10
280.3179933154
 20
354.9676538926
 10
280.3169975506
 20
354.9678384722
 10
280.3159954189
 20
354.9680163566001
 10
280.3149869908001
 20
354.968187471
 10
280.3139723519
 20
354.9683517378
 10
280.3129515878
 20
354.9685090793
 10
280.3119247838
 20
354.9686594179001
 10
280.3108920256
 20
354.968802676
 10
280.3098533987
 20
354.9689387759
 10
280.3088089886
 20
354.9690676402
 10
280.30775888
 20
354.9691891933
 10
280.3067031551
 20
354.9693033692
 10
280.3056418952
 20
354.9694101039
 10
280.3045751814
 20
354.9695093334
 10
280.3035030953
 20
354.9696009939
 10
280.3024257181
 20
354.9696850214
 10
280.301343131
 20
354.969761352
 10
280.3002554155
 20
354.9698299218
 10
280.2991626348
 20
354.9698906666
 10
280.2980647797
 20
354.9699435221
 10
280.2969618232
 20
354.9699884234
 10
280.2958537381
 20
354.9700253058
 10
280.2947404971
 20
354.9700541048001
 10
280.2936220733
 20
354.9700747556
 10
280.2924984393
 20
354.9700871935
 10
280.2913695681001
 20
354.9700913539
 10
280.3923209565001
 20
354.7750913539
 10
280.3923209565001
 20
354.8950913539
 10
279.4555712568
 20
354.7750913539
 10
280.3923209565001
 20
354.7750913539
 10
279.4555712568
 20
354.7750913539
 10
279.4555712568
 20
354.8950913539
 10
279.5565226452
 20
354.9700913539
 10
279.5553937603
 20
354.9700871934
 10
279.5542701126
 20
354.9700747551
 10
279.5531516752
 20
354.9700541037
 10
279.552038421
 20
354.970025304
 10
279.5509303232
 20
354.9699884206
 10
279.5498273548
 20
354.9699435183
 10
279.5487294888
 20
354.9698906618
 10
279.5476366982
 20
354.9698299159
 10
279.5465489741
 20
354.969761345
 10
279.5454663792
 20
354.9696850132
 10
279.5443889942
 20
354.9696009844
 10
279.5433168999
 20
354.9695093223001
 10
279.5422501771
 20
354.9694100908999
 10
279.5411889063
 20
354.9693033539
 10
279.5401331685
 20
354.9691891751
 10
279.5390830442
 20
354.9690676186
 10
279.5380386152
 20
354.9689387503
 10
279.5369999666
 20
354.9688026457
 10
279.5359671846
 20
354.9686593824
 10
279.5349403554
 20
354.9685090381
 10
279.533919565
 20
354.9683516904
 10
279.5329048996
 20
354.9681874172
 10
279.5318964453
 20
354.9680162959
 10
279.5308942884
 20
354.9678384043
 10
279.5298984998
 20
354.9676538173001
 10
279.5289090909
 20
354.9674625988
 10
279.527926058
 20
354.96726481
 10
279.5269493972
 20
354.9670605119
 10
279.525979105
 20
354.9668497658
 10
279.5250151776
 20
354.9666326326999
 10
279.5240576112
 20
354.9664091737999
 10
279.5231064021
 20
354.9661794503
 10
279.5220271068
 20
354.9659093225
 10
279.5209562309
 20
354.9656312197
 10
279.5198938955
 20
354.9653452693001
 10
279.5188402215
 20
354.9650515988
 10
279.5177953298
 20
354.9647503357
 10
279.5167593412
 20
354.9644416075
 10
279.5157323769
 20
354.9641255417
 10
279.5147145409
 20
354.9638022632
 10
279.5137058707
 20
354.9634718864
 10
279.5127063872
 20
354.9631345234
 10
279.5117161112
 20
354.962790286
 10
279.5107350633001
 20
354.9624392861
 10
279.5097632644
 20
354.9620816357
 10
279.5088007353
 20
354.9617174468
 10
279.5078474967
 20
354.9613468312001
 10
279.5069035692
 20
354.9609699018
 10
279.5059689731
 20
354.9605867713
 10
279.5050437291
 20
354.9601975526
 10
279.5041278575
 20
354.9598023584
 10
279.5032213789
 20
354.9594013016001
 10
279.5023243137
 20
354.958994495
 10
279.501436676
 20
354.9585820485
 10
279.5005584537
 20
354.9581640614
 10
279.4996896281
 20
354.9577406298
 10
279.4988301809
 20
354.9573118501001
 10
279.4979800933
 20
354.9568778184
 10
279.497139347
 20
354.9564386312
 10
279.4963079232
 20
354.9559943847
 10
279.4954858023
 20
354.9555451732
 10
279.4946729596
 20
354.9550910824
 10
279.4938693691999
 20
354.9546321964
 10
279.4930750054
 20
354.9541685989
 10
279.4922898423
 20
354.9537003738
 10
279.4915138541
 20
354.953227605
 10
279.4907470149
 20
354.9527503764
 10
279.489989305
 20
354.9522687764
 10
279.4892407292
 20
354.951782913
 10
279.4885012984
 20
354.9512928987001
 10
279.4877710236
 20
354.9507988459
 10
279.4870499156
 20
354.9503008673
 10
279.4863379854
 20
354.9497990753
 10
279.485635244
 20
354.9492935826001
 10
279.4849416873
 20
354.9487844891
 10
279.4842572523
 20
354.9482718447
 10
279.4835818609
 20
354.947755687
 10
279.4829154352
 20
354.9472360533
 10
279.4822578971
 20
354.9467129811
 10
279.4816091688
 20
354.9461865078
 10
279.4809691721
 20
354.9456566708
 10
279.4803378466
 20
354.9451235222
 10
279.4797152016
 20
354.944587173
 10
279.4791012642
 20
354.9440477486
 10
279.478496061
 20
354.9435053745999
 10
279.4778996192
 20
354.9429601766
 10
279.4773119654
 20
354.9424122801
 10
279.4767331267
 20
354.9418618107
 10
279.4761631098
 20
354.9413088737001
 10
279.4756018414
 20
354.9407534942
 10
279.4750492281
 20
354.9401956769
 10
279.4745051764
 20
354.9396354269
 10
279.473969593
 20
354.9390727487
 10
279.4734423845
 20
354.9385076474
 10
279.4729234573
 20
354.9379401278
 10
279.4723284098
 20
354.9372749948
 10
279.4717445105
 20
354.9366067245
 10
279.4711717627
 20
354.9359354646
 10
279.4706101699
 20
354.9352613627
 10
279.4700597354
 20
354.9345845666
 10
279.4695204626
 20
354.9339052239
 10
279.4689923424
 20
354.9332234692
 10
279.4684753157
 20
354.9325393843
 10
279.467969311
 20
354.9318530378
 10
279.4674742567
 20
354.9311644983
 10
279.4669900811
 20
354.9304738345
 10
279.4665167128
 20
354.929781115
 10
279.4660540788
 20
354.9290863982
 10
279.4656021012
 20
354.9283897012001
 10
279.4651607003
 20
354.9276910312
 10
279.464729797
 20
354.926990395
 10
279.4643093117
 20
354.9262877994999
 10
279.4638991651
 20
354.9255832519
 10
279.4634992921
 20
354.9248767858
 10
279.4631096846
 20
354.9241685423
 10
279.462730349
 20
354.9234586892
 10
279.4623612914
 20
354.9227473944
 10
279.4620025182
 20
354.9220348258
 10
279.4616540356
 20
354.9213211511
 10
279.4613158331
 20
354.9206065007
 10
279.4609878328
 20
354.9198908546
 10
279.4606699403
 20
354.9191741553
 10
279.4603620608
 20
354.9184563452
 10
279.4600640997
 20
354.9177373668
 10
279.4597759626
 20
354.9170171626
 10
279.4594975685
 20
354.9162956982
 10
279.4592288924
 20
354.9155730325
 10
279.4589699229
 20
354.9148492475
 10
279.4587206486
 20
354.9141244254
 10
279.4584810583
 20
354.9133986483
 10
279.4582511405
 20
354.9126719981
 10
279.4580308816
 20
354.9119445584
 10
279.4578202587
 20
354.9112164188
 10
279.4576192466
 20
354.9104876703
 10
279.4574278201
 20
354.9097584038
 10
279.4572459539
 20
354.9090287104001
 10
279.4570736228
 20
354.908298681
 10
279.4569107991
 20
354.9075683771
 10
279.4567574454
 20
354.9068377417
 10
279.4566135219
 20
354.9061066883
 10
279.4564789887
 20
354.9053751303
 10
279.4563538058
 20
354.9046429814
 10
279.4562379336
 20
354.9039101548999
 10
279.4561313394
 20
354.9031766026999
 10
279.4560340202
 20
354.9024424304
 10
279.4559459806
 20
354.9017077819
 10
279.4558672248
 20
354.900972801
 10
279.4557977573
 20
354.9002376318
 10
279.4557375825
 20
354.8995024182
 10
279.4556867016
 20
354.898767272
 10
279.4556451036001
 20
354.8980321773
 10
279.4556127743
 20
354.8972970861
 10
279.4555896996
 20
354.8965619504
 10
279.4555758651
 20
354.8958267224
 10
279.4555712568
 20
354.8950913539
 97
        0
 75
     0
 76
     0
 52
45.0
 41
11.88
 77
     0
 78
     1
 53
45.0
 43
0.0
 44
0.0
 45
-8.400428560499998
 46
8.400428560499998
 79
     0
 98
        1
 10
0.0
 20
0.0
  0
HATCH
  5
5A4
330
249
100
AcDbEntity
  8
0
  6
Continuous
 62
     2
100
AcDbHatch
 10
0.0
 20
0.0
 30
0.0
210
0.0
220
0.0
230
1.0
  2
DEFAULT__28
 70
     0
 71
     0
 91
        1
 92
        2
 72
     0
 73
     1
 93
       82
 10
532.1432679586999
 20
338.1022718162
 10
532.1432679586999
 20
332.2931141503
 10
532.1432679586999
 20
332.2931141503
 10
532.1152565072
 20
332.2927841065
 10
532.0872009140999
 20
332.2924669741
 10
532.0591012866
 20
332.2921627375
 10
532.0309577317998
 20
332.2918713812
 10
532.0027703568
 20
332.2915928894
 10
531.9745392688999
 20
332.2913272465001
 10
531.9462645751
 20
332.2910744368
 10
531.9179463826999
 20
332.2908344449
 10
531.8895847988
 20
332.2906072549
 10
531.8611799305999
 20
332.2903928512
 10
531.8327318850999
 20
332.2901912183001
 10
531.8042407696998
 20
332.2900023405
 10
531.7757066912999
 20
332.2898262021
 10
531.7471297573
 20
332.2896627875
 10
531.7204193231998
 20
332.2895217416
 10
531.6936713889999
 20
332.2893918041
 10
531.6668856934
 20
332.289273013
 10
531.6400619748999
 20
332.2891654067
 10
531.6131999722
 20
332.2890690231
 10
531.5862994238998
 20
332.2889839005
 10
531.5593600685999
 20
332.2889100769
 10
531.5323816451
 20
332.2888475906
 10
531.5053638918
 20
332.2887964797
 10
531.4783065474999
 20
332.2887567823
 10
531.4512093508
 20
332.2887285365
 10
531.4240720402998
 20
332.2887117805
 10
531.3968943546
 20
332.2887065524
 10
531.3696760323999
 20
332.2887128905
 10
531.3424168123998
 20
332.2887308328
 10
531.3151164494001
 20
332.288760415
 10
531.2877747641
 20
332.2888016632
 10
531.2603915931999
 20
332.288854601
 10
531.2329667736999
 20
332.2889192521
 10
531.2055001424
 20
332.28899564
 10
531.1779915362
 20
332.2890837885
 10
531.1504407919
 20
332.2891837211
 10
531.1228477465
 20
332.2892954614
 10
531.0952122367999
 20
332.2894190331
 10
531.0675340996
 20
332.2895544598
 10
531.0398131719
 20
332.2897017652
 10
531.0120492903999
 20
332.2898609728
 10
530.9842422922001
 20
332.2900321063
 10
530.956392014
 20
332.2902151893
 10
530.9284982926999
 20
332.2904102454
 10
530.9023083041
 20
332.2906040091
 10
530.8760797073
 20
332.2908083573
 10
530.8498122201
 20
332.2910233303
 10
530.8235055598999
 20
332.2912489687
 10
530.7971594444999
 20
332.2914853128
 10
530.7707735914
 20
332.2917324031
 10
530.7443477182999
 20
332.29199028
 10
530.7178815429
 20
332.2922589839
 10
530.6913747827
 20
332.2925385553
 10
530.6648271553998
 20
332.2928290346
 10
530.6382383786
 20
332.2931304623
 10
530.61160817
 20
332.2934428787
 10
530.5849362471
 20
332.2937663242
 10
530.5582223275999
 20
332.2941008394
 10
530.5314661291
 20
332.2944464647
 10
530.5046673692999
 20
332.2948032404
 10
530.4778258285999
 20
332.2951711981001
 10
530.4509415382
 20
332.2955503331
 10
530.4240145924
 20
332.2959406322
 10
530.3970450851998
 20
332.2963420817
 10
530.3700331108
 20
332.2967546682
 10
530.3429787633
 20
332.2971783782
 10
530.3158821369
 20
332.2976131983001
 10
530.2887433256
 20
332.2980591149
 10
530.2615624234999
 20
332.2985161147
 10
530.2343395249
 20
332.298984184
 10
530.2070747237999
 20
332.2994633096
 10
530.1797681143
 20
332.2999534777
 10
530.1524197905999
 20
332.3004546751
 10
530.1250298468
 20
332.3009668881
 10
530.0975983769999
 20
332.3014901034
 10
530.0701254753
 20
332.3020243075
 10
530.0701254753
 20
332.3020243075
 10
530.0701254753
 20
338.1022718162
 10
530.0701254753
 20
338.1022718162
 97
        0
 75
     0
 76
     0
 52
45.0
 41
11.88
 77
     0
 78
     1
 53
45.0
 43
0.0
 44
0.0
 45
-8.400428560499998
 46
8.400428560499998
 79
     0
 98
        1
 10
0.0
 20
0.0
  0
LINE
  5
526C
330
249
100
AcDbEntity
  8
ALL_ASSEM_MEMBER
  6
Continuous
 62
     9
100
AcDbLine
 10
1477.536599025342
 20
968.5650689616479
 30
0.0
 11
1477.536599025342
 21
830.565068975448
 31
0.0
  0
LINE
  5
5271
330
249
100
AcDbEntity
  8
02___PRT_ALL_AXES
  6
CENTER
 62
     2
100
AcDbLine
 10
1480.536599025042
 20
855.565068972948
 30
0.0
 11
1480.536599025042
 21
851.948402306643
 31
0.0
  0
LINE
  5
5272
330
249
100
AcDbEntity
  8
02___PRT_ALL_AXES
  6
CENTER
 62
     2
100
AcDbLine
 10
1480.536599025042
 20
855.565068972948
 30
0.0
 11
1480.536599025042
 21
859.1817356392529
 31
0.0
  0
LINE
  5
52A3
330
249
100
AcDbEntity
  8
ALL_ASSEM_MEMBER
  6
Continuous
 62
     9
100
AcDbLine
 10
1489.65081258653
 20
971.9792825235734
 30
0.0
 11
1486.236599024472
 21
968.5650689616479
 31
0.0
  0
LINE
  5
52A5
330
249
100
AcDbEntity
  8
ALL_ASSEM_MEMBER
  6
Continuous
 62
     9
100
AcDbLine
 10
1477.536599025342
 20
830.565068975448
 30
0.0
 11
1669.536599006142
 21
830.565068975448
 31
0.0
  0
LINE
  5
52BE
330
249
100
AcDbEntity
  8
ALL_ASSEM_MEMBER
  6
Continuous
 62
     9
100
AcDbLine
 10
1483.536599024741
 20
836.5650689748479
 30
0.0
 11
1663.536599006742
 21
836.5650689748479
 31
0.0
  0
LINE
  5
52E9
330
249
100
AcDbEntity
  8
ALL_ASSEM_MEMBER
  6
Continuous
 62
     9
100
AcDbLine
 10
1483.536599024741
 20
830.565068975448
 30
0.0
 11
1483.536599024741
 21
968.5650689616479
 31
0.0
  0
LINE
  5
53C6
330
249
100
AcDbEntity
  8
02___PRT_ALL_AXES
  6
CENTER
 62
     2
100
AcDbLine
 10
1666.536599006442
 20
855.565068972948
 30
0.0
 11
1662.919932340136
 21
855.565068972948
 31
0.0
  0
LINE
  5
53C7
330
249
100
AcDbEntity
  8
02___PRT_ALL_AXES
  6
CENTER
 62
     2
100
AcDbLine
 10
1480.536599025042
 20
855.565068972948
 30
0.0
 11
1476.919932358737
 21
855.565068972948
 31
0.0
  0
LINE
  5
53C8
330
249
100
AcDbEntity
  8
02___PRT_ALL_AXES
  6
CENTER
 62
     2
100
AcDbLine
 10
1480.536599025042
 20
855.565068972948
 30
0.0
 11
1484.153265691347
 21
855.565068972948
 31
0.0
  0
LINE
  5
53C9
330
249
100
AcDbEntity
  8
02___PRT_ALL_AXES
  6
CENTER
 62
     2
100
AcDbLine
 10
1666.536599006442
 20
855.565068972948
 30
0.0
 11
1670.153265672747
 21
855.565068972948
 31
0.0
  0
LINE
  5
5548
330
249
100
AcDbEntity
  8
ALL_ASSEM_MEMBER
  6
Continuous
 62
     9
100
AcDbLine
 10
1481.135558260982
 20
963.764028198128
 30
0.0
 11
1479.135558261182
 21
965.764028197928
 31
0.0
  0
LINE
  5
5549
330
249
100
AcDbEntity
  8
ALL_ASSEM_MEMBER
  6
Continuous
 62
     9
100
AcDbLine
 10
1480.337639789062
 20
966.9661097258079
 30
0.0
 11
1482.337639788861
 21
964.9661097260079
 31
0.0
  0
LINE
  5
5797
330
249
100
AcDbEntity
  8
ALL_ASSEM_MEMBER
  6
Continuous
 62
     7
100
AcDbLine
 10
1557.536599017342
 20
974.1650689610879
 30
0.0
 11
1557.536599017342
 21
992.1650689592879
 31
0.0
  0
LINE
  5
5920
330
249
100
AcDbEntity
  8
ALL_ASSEM_MEMBER
  6
Continuous
 62
     7
100
AcDbLine
 10
1566.136599016482
 20
1020.565068956448
 30
0.0
 11
1566.136599016482
 21
992.1650689592879
 31
0.0
  0
LINE
  5
592D
330
249
100
AcDbEntity
  8
ALL_ASSEM_MEMBER
  6
Continuous
 62
     7
100
AcDbLine
 10
1567.536599016342
 20
974.1650689610879
 30
0.0
 11
1567.536599016342
 21
972.5650689612479
 31
0.0
  0
LINE
  5
593D
330
249
100
AcDbEntity
  8
ALL_ASSEM_MEMBER
  6
Continuous
 62
     7
100
AcDbLine
 10
1568.35055816906
 20
992.1650689592879
 30
0.0
 11
1568.35055816906
 21
976.1650690726212
 31
0.0
  0
LINE
  5
594A
330
249
100
AcDbEntity
  8
ALL_ASSEM_MEMBER
  6
Continuous
 62
     7
100
AcDbLine
 10
1569.948141748721
 20
976.1650690677423
 30
0.0
 11
1569.948141747967
 21
974.1650689610879
 31
0.0
  0
LINE
  5
5981
330
249
100
AcDbEntity
  8
ALL_ASSEM_MEMBER
  6
Continuous
 62
     9
100
AcDbLine
 10
1479.135558261182
 20
833.3661097391678
 30
0.0
 11
1481.135558260982
 21
835.3661097389678
 31
0.0
  0
LINE
  5
59F3
330
249
100
AcDbEntity
  8
ALL_ASSEM_MEMBER
  6
Continuous
 62
     9
100
AcDbLine
 10
1664.735558242622
 20
834.1640282110881
 30
0.0
 11
1666.735558242422
 21
832.164028211288
 31
0.0
  0
LINE
  5
59F4
330
249
100
AcDbEntity
  8
ALL_ASSEM_MEMBER
  6
Continuous
 62
     9
100
AcDbLine
 10
1667.937639770302
 20
833.3661097391678
 30
0.0
 11
1665.937639770501
 21
835.3661097389678
 31
0.0
  0
LINE
  5
5A72
330
249
100
AcDbEntity
  8
ALL_ASSEM_MEMBER
  6
Continuous
 62
     9
100
AcDbLine
 10
1482.337639788861
 20
834.1640282110881
 30
0.0
 11
1480.337639789062
 21
832.164028211288
 31
0.0
  0
LINE
  5
5C70
330
249
100
AcDbEntity
  8
ALL_ASSEM_MEMBER
  6
Continuous
 62
     7
100
AcDbLine
 10
1603.536599013496
 20
976.1650689651635
 30
0.0
 11
1603.536599012742
 21
972.5650689612479
 31
0.0
  0
LINE
  5
5C81
330
249
100
AcDbEntity
  8
ALL_ASSEM_MEMBER
  6
Continuous
 62
     7
100
AcDbLine
 10
1604.936599012602
 20
1020.565068956448
 30
0.0
 11
1604.936599012602
 21
976.165068960888
 31
0.0
  0
LINE
  5
5D54
330
249
100
AcDbEntity
  8
ALL_ASSEM_MEMBER
  6
Continuous
 62
     9
100
AcDbLine
 10
1483.536599024741
 20
962.5650689622479
 30
0.0
 11
1663.536599006742
 21
962.5650689622479
 31
0.0
  0
LINE
  5
5E07
330
249
100
AcDbEntity
  8
ALL_ASSEM_MEMBER
  6
Continuous
 62
     9
100
AcDbLine
 10
1666.735558242422
 20
966.9661097258079
 30
0.0
 11
1664.735558242622
 21
964.9661097260079
 31
0.0
  0
LINE
  5
5E08
330
249
100
AcDbEntity
  8
ALL_ASSEM_MEMBER
  6
Continuous
 62
     9
100
AcDbLine
 10
1665.937639770501
 20
963.764028198128
 30
0.0
 11
1667.937639770302
 21
965.764028197928
 31
0.0
  0
LINE
  5
5E48
330
249
100
AcDbEntity
  8
ALL_ASSEM_MEMBER
  6
Continuous
 62
     9
100
AcDbLine
 10
1477.536599025342
 20
968.5650689616479
 30
0.0
 11
1669.536599006142
 21
968.5650689616479
 31
0.0
  0
LINE
  5
5E61
330
249
100
AcDbEntity
  8
ALL_ASSEM_MEMBER
  6
Continuous
 62
     9
100
AcDbLine
 10
1491.065026148655
 20
972.5650689612479
 30
0.0
 11
1656.008171882694
 21
972.5650689612479
 31
0.0
  0
LINE
  5
5E62
330
249
100
AcDbEntity
  8
ALL_ASSEM_MEMBER
  6
Continuous
 62
     7
100
AcDbLine
 10
1557.536599017342
 20
974.1650689610879
 30
0.0
 11
1569.948141747967
 21
974.1650689610879
 31
0.0
  0
LINE
  5
6001
330
249
100
AcDbEntity
  8
ALL_ASSEM_MEMBER
  6
Continuous
 62
     7
100
AcDbLine
 10
1557.536599017342
 20
992.1650689592879
 30
0.0
 11
1568.348141748127
 21
992.1650689592879
 31
0.0
  0
LINE
  5
60C7
330
249
100
AcDbEntity
  8
ALL_ASSEM_MEMBER
  6
Continuous
 62
     9
100
AcDbLine
 10
1663.536599006742
 20
830.565068975448
 30
0.0
 11
1663.536599006742
 21
968.5650689616479
 31
0.0
  0
LINE
  5
60FA
330
249
100
AcDbEntity
  8
ALL_ASSEM_MEMBER
  6
Continuous
 62
     9
100
AcDbLine
 10
1566.136599016482
 20
1020.565068956448
 30
0.0
 11
1604.936599012602
 21
1020.565068956448
 31
0.0
  0
LINE
  5
60FF
330
249
100
AcDbEntity
  8
ALL_ASSEM_MEMBER
  6
Continuous
 62
     9
100
AcDbLine
 10
1660.836599007012
 20
968.5650689616479
 30
0.0
 11
1657.422385444953
 21
971.9792825235734
 31
0.0
  0
LINE
  5
6107
330
249
100
AcDbEntity
  8
02___PRT_ALL_AXES
  6
CENTER
 62
     2
100
AcDbLine
 10
1666.536599006442
 20
855.565068972948
 30
0.0
 11
1666.536599006442
 21
851.948402306643
 31
0.0
  0
LINE
  5
6108
330
249
100
AcDbEntity
  8
02___PRT_ALL_AXES
  6
CENTER
 62
     2
100
AcDbLine
 10
1666.536599006442
 20
855.565068972948
 30
0.0
 11
1666.536599006442
 21
859.1817356392529
 31
0.0
  0
LINE
  5
610D
330
249
100
AcDbEntity
  8
ALL_ASSEM_MEMBER
  6
Continuous
 62
     9
100
AcDbLine
 10
1669.536599006142
 20
830.565068975448
 30
0.0
 11
1669.536599006142
 21
968.5650689616479
 31
0.0
  0
LINE
  5
6230
330
249
100
AcDbEntity
  8
0
100
AcDbLine
 10
1471.183658325342
 20
581.6788732760699
 30
0.0
 11
1675.889539706142
 21
581.6788732760699
 31
0.0
  0
LINE
  5
64AB
330
249
100
AcDbEntity
  8
0
100
AcDbLine
 10
1477.536599025342
 20
612.6788732729699
 30
0.0
 11
1669.536599006142
 21
612.6788732729699
 31
0.0
  0
LINE
  5
66B9
330
249
100
AcDbEntity
  8
0
100
AcDbLine
 10
1552.536599017842
 20
612.6788732729699
 30
0.0
 11
1552.536599017842
 21
730.6788732611699
 31
0.0
  0
LINE
  5
6710
330
249
100
AcDbEntity
  8
0
100
AcDbLine
 10
1557.536599017342
 20
662.67887326797
 30
0.0
 11
1557.536599017342
 21
680.67887326617
 31
0.0
  0
LINE
  5
67A8
330
249
100
AcDbEntity
  8
0
100
AcDbLine
 10
1557.536599017342
 20
662.67887326797
 30
0.0
 11
1568.348141748127
 21
662.67887326797
 31
0.0
  0
LINE
  5
68C8
330
249
100
AcDbEntity
  8
0
100
AcDbLine
 10
1557.536599017342
 20
680.67887326617
 30
0.0
 11
1568.35055816906
 21
680.67887326617
 31
0.0
  0
LINE
  5
6B99
330
249
100
AcDbEntity
  8
0
100
AcDbLine
 10
1618.536599011242
 20
730.6788732611699
 30
0.0
 11
1618.536599011242
 21
612.6788732729699
 31
0.0
  0
LINE
  5
6D29
330
249
100
AcDbEntity
  8
0
100
AcDbLine
 10
1477.536599025342
 20
730.6788732611699
 30
0.0
 11
1669.536599006142
 21
730.6788732611699
 31
0.0
  0
LINE
  5
6FF6
330
249
100
AcDbEntity
  8
0
100
AcDbLine
 10
1675.889539706142
 20
761.6788732580699
 30
0.0
 11
1471.183658325342
 21
761.6788732580699
 31
0.0
  0
LINE
  5
7046
330
249
100
AcDbEntity
  8
ALL_ASSEM_MEMBER
  6
Continuous
 62
     9
100
AcDbLine
 10
1710.290729075266
 20
831.1650614748479
 30
0.0
 11
1710.290729075266
 21
967.6650689622778
 31
0.0
  0
LINE
  5
70F8
330
249
100
AcDbEntity
  8
02___PRT_ALL_AXES
  6
CENTER
 62
     2
100
AcDbLine
 10
1893.257395723636
 20
855.565068972948
 30
0.0
 11
1887.624062390866
 21
855.565068972948
 31
0.0
  0
LINE
  5
7160
330
249
100
AcDbEntity
  8
ALL_ASSEM_MEMBER
  6
Continuous
 62
     7
100
AcDbLine
 10
1741.290729072166
 20
962.2650689622778
 30
0.0
 11
1741.290729072166
 21
972.5650689612479
 31
0.0
  0
LINE
  5
7325
330
249
100
AcDbEntity
  8
ALL_ASSEM_MEMBER
  6
Continuous
 62
     7
100
AcDbLine
 10
1780.890729068206
 20
976.165068960888
 30
0.0
 11
1780.890729068206
 21
1020.565068956448
 31
0.0
  0
LINE
  5
7333
330
249
100
AcDbEntity
  8
ALL_ASSEM_MEMBER
  6
Continuous
 62
     7
100
AcDbLine
 10
1782.290729068066
 20
970.5650689614479
 30
0.0
 11
1782.290729068066
 21
976.165068960888
 31
0.0
  0
LINE
  5
73F7
330
249
100
AcDbEntity
  8
ALL_ASSEM_MEMBER
  6
Continuous
 62
     7
100
AcDbLine
 10
1791.290729067166
 20
992.1650689592879
 30
0.0
 11
1791.290729067166
 21
974.1650689610879
 31
0.0
  0
LINE
  5
757B
330
249
100
AcDbEntity
  8
ALL_ASSEM_MEMBER
  6
HIDDEN
 62
     8
100
AcDbLine
 10
1809.289657810566
 20
976.165068960888
 30
0.0
 11
1809.2896702675
 21
992.1650689592879
 31
0.0
  0
LINE
  5
757D
330
249
100
AcDbEntity
  8
ALL_ASSEM_MEMBER
  6
Continuous
 62
     7
100
AcDbLine
 10
1809.290729065366
 20
974.1650689610879
 30
0.0
 11
1809.290729065366
 21
992.1650689592879
 31
0.0
  0
LINE
  5
764F
330
249
100
AcDbEntity
  8
ALL_ASSEM_MEMBER
  6
Continuous
 62
     7
100
AcDbLine
 10
1818.290729064466
 20
970.5650689614479
 30
0.0
 11
1818.290729064466
 21
976.165068960888
 31
0.0
  0
LINE
  5
7688
330
249
100
AcDbEntity
  8
ALL_ASSEM_MEMBER
  6
Continuous
 62
     7
100
AcDbLine
 10
1819.690729064326
 20
976.165068960888
 30
0.0
 11
1819.690729064326
 21
1020.565068956448
 31
0.0
  0
LINE
  5
780B
330
249
100
AcDbEntity
  8
ALL_ASSEM_MEMBER
  6
Continuous
 62
     9
100
AcDbLine
 10
1890.290729057266
 20
962.2650689622778
 30
0.0
 11
1710.290729075266
 21
962.2650689622778
 31
0.0
  0
LINE
  5
796C
330
249
100
AcDbEntity
  8
ALL_ASSEM_MEMBER
  6
Continuous
 62
     7
100
AcDbLine
 10
1741.290729072166
 20
970.5650689614479
 30
0.0
 11
1859.290729060366
 21
970.5650689614479
 31
0.0
  0
LINE
  5
79E4
330
249
100
AcDbEntity
  8
ALL_ASSEM_MEMBER
  6
Continuous
 62
     7
100
AcDbLine
 10
1791.290729067166
 20
974.1650689610879
 30
0.0
 11
1809.290729065366
 21
974.1650689610879
 31
0.0
  0
LINE
  5
7A3F
330
249
100
AcDbEntity
  8
ALL_ASSEM_MEMBER
  6
Continuous
 62
     7
100
AcDbLine
 10
1859.290729060366
 20
962.2650689622778
 30
0.0
 11
1859.290729060366
 21
972.5650689612479
 31
0.0
  0
LINE
  5
7A6B
330
249
100
AcDbEntity
  8
ALL_ASSEM_MEMBER
  6
Continuous
 62
     7
100
AcDbLine
 10
1809.290729065366
 20
992.1650689592879
 30
0.0
 11
1791.290729067166
 21
992.1650689592879
 31
0.0
  0
LINE
  5
7B25
330
249
100
AcDbEntity
  8
ALL_ASSEM_MEMBER
  6
Continuous
 62
     9
100
AcDbLine
 10
1890.290729057266
 20
967.6650689622778
 30
0.0
 11
1890.290729057266
 21
831.1650614748479
 31
0.0
  0
LINE
  5
7B2D
330
249
100
AcDbEntity
  8
ALL_ASSEM_MEMBER
  6
Continuous
 62
     9
100
AcDbLine
 10
1819.690729064326
 20
1020.565068956448
 30
0.0
 11
1780.890729068206
 21
1020.565068956448
 31
0.0
  0
ARC
  5
7DF9
330
249
100
AcDbEntity
  8
ALL_ASSEM_MEMBER
  6
Continuous
 62
     9
100
AcDbCircle
 10
1479.736599025121
 20
832.7650689752279
 30
0.0
 40
0.8499999999150001
100
AcDbArc
 50
134.9999999999892
 51
315.0
  0
ARC
  5
7DFA
330
249
100
AcDbEntity
  8
ALL_ASSEM_MEMBER
  6
Continuous
 62
     9
100
AcDbCircle
 10
1481.736599024922
 20
834.7650689750279
 30
0.0
 40
0.8499999999150001
100
AcDbArc
 50
315.0
 51
135.0000000000054
  0
CIRCLE
  5
7E07
330
249
100
AcDbEntity
  8
ALL_ASSEM_MEMBER
  6
Continuous
 62
     9
100
AcDbCircle
 10
1480.536599025042
 20
855.565068972948
 30
0.0
 40
0.9499999999050002
  0
CIRCLE
  5
7E33
330
249
100
AcDbEntity
  8
ALL_ASSEM_MEMBER
  6
HIDDEN
 62
     8
100
AcDbCircle
 10
1480.536599025042
 20
943.5650689641479
 30
0.0
 40
0.9499999999050002
  0
ARC
  5
7E38
330
249
100
AcDbEntity
  8
ALL_ASSEM_MEMBER
  6
Continuous
 62
     9
100
AcDbCircle
 10
1481.736599024922
 20
964.3650689620679
 30
0.0
 40
0.8499999999150001
100
AcDbArc
 50
225.0
 51
45.0
  0
ARC
  5
7E49
330
249
100
AcDbEntity
  8
ALL_ASSEM_MEMBER
  6
Continuous
 62
     9
100
AcDbCircle
 10
1479.736599025121
 20
966.3650689618679
 30
0.0
 40
0.8499999999150001
100
AcDbArc
 50
44.99999999999458
 51
225.0000000000108
  0
ARC
  5
7E5D
330
249
100
AcDbEntity
  8
ALL_ASSEM_MEMBER
  6
Continuous
 62
     9
100
AcDbCircle
 10
1491.065026148655
 20
970.5650689614479
 30
0.0
 40
1.9999999998
100
AcDbArc
 50
90.0
 51
135.0
  0
ARC
  5
7E5E
330
249
100
AcDbEntity
  8
ALL_ASSEM_MEMBER
  6
Continuous
 62
     9
100
AcDbCircle
 10
1495.536599023542
 20
968.5650689616479
 30
0.0
 40
2.9999999997
100
AcDbArc
 50
176.1079625413994
 51
176.1096053273995
  0
ARC
  5
7E5F
330
249
100
AcDbEntity
  8
ALL_ASSEM_MEMBER
  6
Continuous
 62
     9
100
AcDbCircle
 10
1495.536599023542
 20
968.5650689616479
 30
0.0
 40
2.9999999997
100
AcDbArc
 50
359.9996171549007
 51
3.890394672600467
  0
ARC
  5
7E60
330
249
100
AcDbEntity
  8
ALL_ASSEM_MEMBER
  6
Continuous
 62
     9
100
AcDbCircle
 10
1495.536599023542
 20
968.5650689616479
 30
0.0
 40
2.9999999997
100
AcDbArc
 50
176.1096053273995
 51
180.0003828451015
  0
ARC
  5
7E61
330
249
100
AcDbEntity
  8
ALL_ASSEM_MEMBER
  6
Continuous
 62
     9
100
AcDbCircle
 10
1495.536599023542
 20
968.5650689616479
 30
0.0
 40
2.9999999997
100
AcDbArc
 50
3.892037458600602
 51
176.1079625413994
  0
ARC
  5
7E62
330
249
100
AcDbEntity
  8
ALL_ASSEM_MEMBER
  6
Continuous
 62
     9
100
AcDbCircle
 10
1495.536599023542
 20
968.5650689616479
 30
0.0
 40
2.9999999997
100
AcDbArc
 50
3.890394672600467
 51
3.892037458600602
  0
ARC
  5
7E9A
330
249
100
AcDbEntity
  8
ALL_ASSEM_MEMBER
  6
Continuous
 62
     7
100
AcDbCircle
 10
1571.536599015942
 20
1020.565068956448
 30
0.0
 40
5.399999999459999
100
AcDbArc
 50
90.0
 51
180.0
  0
ARC
  5
7EAA
330
249
100
AcDbEntity
  8
ALL_ASSEM_MEMBER
  6
Continuous
 62
     9
100
AcDbCircle
 10
1665.336599006562
 20
834.7650689750279
 30
0.0
 40
0.8499999999150001
100
AcDbArc
 50
44.99999999999458
 51
225.0
  0
ARC
  5
7EAB
330
249
100
AcDbEntity
  8
ALL_ASSEM_MEMBER
  6
Continuous
 62
     9
100
AcDbCircle
 10
1667.336599006362
 20
832.7650689752279
 30
0.0
 40
0.8499999999150001
100
AcDbArc
 50
225.0
 51
45.00000000001084
  0
CIRCLE
  5
7EB8
330
249
100
AcDbEntity
  8
ALL_ASSEM_MEMBER
  6
Continuous
 62
     9
100
AcDbCircle
 10
1666.536599006442
 20
855.565068972948
 30
0.0
 40
0.9499999999050002
  0
ARC
  5
7F19
330
249
100
AcDbEntity
  8
ALL_ASSEM_MEMBER
  6
Continuous
 62
     7
100
AcDbCircle
 10
1599.536599013142
 20
1020.565068956448
 30
0.0
 40
5.399999999459999
100
AcDbArc
 50
0.0
 51
90.0
  0
CIRCLE
  5
7F28
330
249
100
AcDbEntity
  8
ALL_ASSEM_MEMBER
  6
HIDDEN
 62
     8
100
AcDbCircle
 10
1666.536599006442
 20
943.5650689641479
 30
0.0
 40
0.9499999999050002
  0
ARC
  5
7F34
330
249
100
AcDbEntity
  8
ALL_ASSEM_MEMBER
  6
Continuous
 62
     9
100
AcDbCircle
 10
1651.536599007942
 20
968.5650689616479
 30
0.0
 40
2.9999999997
100
AcDbArc
 50
3.892037458498198
 51
176.1079625413994
  0
ARC
  5
7F39
330
249
100
AcDbEntity
  8
ALL_ASSEM_MEMBER
  6
Continuous
 62
     9
100
AcDbCircle
 10
1656.008171882694
 20
970.5650689614479
 30
0.0
 40
1.9999999998
100
AcDbArc
 50
45.0
 51
90.0
  0
ARC
  5
7F3A
330
249
100
AcDbEntity
  8
ALL_ASSEM_MEMBER
  6
Continuous
 62
     9
100
AcDbCircle
 10
1665.336599006562
 20
964.3650689620679
 30
0.0
 40
0.8499999999150001
100
AcDbArc
 50
135.0
 51
314.9999999999891
  0
ARC
  5
7F5A
330
249
100
AcDbEntity
  8
ALL_ASSEM_MEMBER
  6
Continuous
 62
     9
100
AcDbCircle
 10
1667.336599006362
 20
966.3650689618679
 30
0.0
 40
0.8499999999150001
100
AcDbArc
 50
314.9999999999891
 51
135.0000000000163
  0
ARC
  5
810C
330
249
100
AcDbEntity
  8
ALL_ASSEM_MEMBER
  6
HIDDEN
 62
     8
100
AcDbCircle
 10
1585.536599014541
 20
671.6788732670699
 30
0.0
 40
24.9999999975
100
AcDbArc
 50
158.8909090098001
 51
201.1090909901999
  0
ARC
  5
810D
330
249
100
AcDbEntity
  8
0
100
AcDbCircle
 10
1585.536599014541
 20
671.6788732670699
 30
0.0
 40
24.9999999975
100
AcDbArc
 50
201.1090909901999
 51
158.8909090098001
  0
CIRCLE
  5
810E
330
249
100
AcDbEntity
  8
0
100
AcDbCircle
 10
1585.536599014541
 20
671.6788732670699
 30
0.0
 40
19.39999999806
  0
ARC
  5
8286
330
249
100
AcDbEntity
  8
ALL_ASSEM_MEMBER
  6
Continuous
 62
     7
100
AcDbCircle
 10
1786.290729067666
 20
1020.565068956448
 30
0.0
 40
5.399999999459999
100
AcDbArc
 50
90.0
 51
180.0
  0
CIRCLE
  5
829A
330
249
100
AcDbEntity
  8
0
100
AcDbCircle
 10
1800.290729066266
 20
888.9650689696078
 30
0.0
 40
31.9999999968
  0
ARC
  5
830A
330
249
100
AcDbEntity
  8
ALL_ASSEM_MEMBER
  6
Continuous
 62
     7
100
AcDbCircle
 10
1814.290729064866
 20
1020.565068956448
 30
0.0
 40
5.399999999459999
100
AcDbArc
 50
0.0
 51
90.0
  0
LINE
  5
8525
330
249
100
AcDbEntity
  8
0
100
AcDbLine
 10
1669.536599006142
 20
761.6788732580699
 30
0.0
 11
1669.536599006142
 21
581.6788732760699
 31
0.0
  0
LINE
  5
8526
330
249
100
AcDbEntity
  8
0
100
AcDbLine
 10
1477.536599025342
 20
761.67887325807
 30
0.0
 11
1477.536599025342
 21
581.6788732760698
 31
0.0
  0
LINE
  5
8528
330
249
100
AcDbEntity
  8
02___PRT_ALL_AXES
  6
CENTER
 62
     2
100
AcDbLine
 10
1707.017895082699
 20
943.5650689641479
 30
0.0
 11
1714.422660549791
 21
943.5650689641479
 31
0.0
  0
LINE
  5
852A
330
249
100
AcDbEntity
  8
0
100
AcDbLine
 10
1568.35055816906
 20
976.1650690726212
 30
0.0
 11
1604.936599012602
 21
976.165068960888
 31
0.0
  0
LINE
  5
852B
330
249
100
AcDbEntity
  8
0
100
AcDbLine
 10
1571.536599015942
 20
1025.965068955908
 30
0.0
 11
1599.536599013142
 21
1025.965068955908
 31
0.0
  0
LINE
  5
8550
330
249
100
AcDbEntity
  8
0
100
AcDbLine
 10
1780.890729068206
 20
976.165068960888
 30
0.0
 11
1791.290729067166
 21
976.165068960888
 31
0.0
  0
LINE
  5
8551
330
249
100
AcDbEntity
  8
0
100
AcDbLine
 10
1809.290729065366
 20
976.165068960888
 30
0.0
 11
1819.690729064326
 21
976.165068960888
 31
0.0
  0
LINE
  5
8553
330
249
100
AcDbEntity
  8
0
100
AcDbLine
 10
1786.290729067666
 20
1025.965068955908
 30
0.0
 11
1814.290729064866
 21
1025.965068955908
 31
0.0
  0
LINE
  5
86A6
330
249
100
AcDbEntity
  8
0
100
AcDbLine
 10
1470.477776025342
 20
760.9729909580702
 30
0.0
 11
1470.477776025342
 21
759.3259322580702
 31
0.0
  0
ARC
  5
86A7
330
249
100
AcDbEntity
  8
0
100
AcDbCircle
 10
1471.183658325342
 20
760.9729909580702
 30
0.0
 40
0.7058823000000001
100
AcDbArc
 50
90.0
 51
180.0
  0
LINE
  5
86A8
330
249
100
AcDbEntity
  8
0
100
AcDbLine
 10
1676.595422006141
 20
760.9729909580699
 30
0.0
 11
1676.595422006141
 21
759.3259322580699
 31
0.0
  0
ARC
  5
86A9
330
249
100
AcDbEntity
  8
0
100
AcDbCircle
 10
1675.889539706142
 20
760.9729909580699
 30
0.0
 40
0.7058823000000001
100
AcDbArc
 50
0.0
 51
90.0
  0
LINE
  5
86AA
330
249
100
AcDbEntity
  8
0
100
AcDbLine
 10
1676.595422006141
 20
582.3847555760699
 30
0.0
 11
1676.595422006141
 21
584.0318142760699
 31
0.0
  0
ARC
  5
86AB
330
249
100
AcDbEntity
  8
0
100
AcDbCircle
 10
1675.889539706142
 20
582.3847555760699
 30
0.0
 40
0.7058823000000001
100
AcDbArc
 50
270.0
 51
0.0
  0
LINE
  5
86AC
330
249
100
AcDbEntity
  8
0
100
AcDbLine
 10
1470.477776025342
 20
582.3847555760698
 30
0.0
 11
1470.477776025342
 21
584.0318142760698
 31
0.0
  0
ARC
  5
86AD
330
249
100
AcDbEntity
  8
0
100
AcDbCircle
 10
1471.183658325342
 20
582.3847555760698
 30
0.0
 40
0.7058823000000001
100
AcDbArc
 50
180.0
 51
270.0
  0
LINE
  5
86AF
330
249
100
AcDbEntity
  8
02___PRT_ALL_AXES
  6
CENTER
 62
     2
100
AcDbLine
 10
1585.536599014541
 20
646.1164620482815
 30
0.0
 11
1585.536599014541
 21
697.2412844858583
 31
0.0
  0
LINE
  5
86B0
330
249
100
AcDbEntity
  8
02___PRT_ALL_AXES
  6
CENTER
 62
     2
100
AcDbLine
 10
1559.974187795753
 20
671.6788732670699
 30
0.0
 11
1611.09901023333
 21
671.6788732670699
 31
0.0
  0
LINE
  5
86B1
330
249
100
AcDbEntity
  8
0
 62
     2
100
AcDbLine
 10
1573.536599015742
 20
793.2018034030002
 30
0.0
 11
1573.536599015742
 21
751.2378616093894
 31
0.0
  0
LINE
  5
86B2
330
249
100
AcDbEntity
  8
0
 62
     2
100
AcDbLine
 10
1573.536599015742
 20
751.2378616093894
 30
0.0
 11
1567.642996523839
 21
770.0750088145213
 31
0.0
  0
LINE
  5
86B3
330
249
100
AcDbEntity
  8
0
 62
     2
100
AcDbLine
 10
1567.642996523839
 20
770.0750088145213
 30
0.0
 11
1573.536599015742
 21
770.0750088145213
 31
0.0
  0
LINE
  5
86B4
330
249
100
AcDbEntity
  8
0
 62
     2
100
AcDbLine
 10
1573.536599015742
 20
751.2378616093894
 30
0.0
 11
1579.430201507644
 21
770.0750088145213
 31
0.0
  0
LINE
  5
86B5
330
249
100
AcDbEntity
  8
0
 62
     2
100
AcDbLine
 10
1579.430201507644
 20
770.0750088145213
 30
0.0
 11
1573.536599015742
 21
770.0750088145213
 31
0.0
  0
LINE
  5
86B6
330
249
100
AcDbEntity
  8
0
 62
     2
100
AcDbLine
 10
1573.536599015742
 20
596.8462064026107
 30
0.0
 11
1573.536599015742
 21
554.8822646089998
 31
0.0
  0
LINE
  5
86B7
330
249
100
AcDbEntity
  8
0
 62
     2
100
AcDbLine
 10
1573.536599015742
 20
554.8822646089998
 30
0.0
 11
1567.642996523839
 21
573.7194118141318
 31
0.0
  0
LINE
  5
86B8
330
249
100
AcDbEntity
  8
0
 62
     2
100
AcDbLine
 10
1567.642996523839
 20
573.7194118141318
 30
0.0
 11
1573.536599015742
 21
573.7194118141318
 31
0.0
  0
LINE
  5
86B9
330
249
100
AcDbEntity
  8
0
 62
     2
100
AcDbLine
 10
1573.536599015742
 20
554.8822646089998
 30
0.0
 11
1579.430201507644
 21
573.7194118141318
 31
0.0
  0
LINE
  5
86BA
330
249
100
AcDbEntity
  8
0
 62
     2
100
AcDbLine
 10
1579.430201507644
 20
573.7194118141318
 30
0.0
 11
1573.536599015742
 21
573.7194118141318
 31
0.0
  0
LINE
  5
86BB
330
249
100
AcDbEntity
  8
02___PRT_ALL_AXES
  6
CENTER
 62
     2
100
AcDbLine
 10
1585.536599014541
 20
1027.965068955908
 30
0.0
 11
1585.536599014541
 21
965.0091301868796
 31
0.0
  0
LINE
  5
86BC
330
249
100
AcDbEntity
  8
0
 62
     2
100
AcDbLine
 10
1573.792921918111
 20
938.8235858259117
 30
0.0
 11
1536.519808440657
 21
919.5443891996422
 31
0.0
  0
LINE
  5
86BD
330
249
100
AcDbEntity
  8
0
 62
     2
100
AcDbLine
 10
1536.519808440657
 20
919.5443891996422
 30
0.0
 11
1550.543638875469
 21
933.4334080669345
 31
0.0
  0
LINE
  5
86BE
330
249
100
AcDbEntity
  8
0
 62
     2
100
AcDbLine
 10
1550.543638875469
 20
933.4334080669345
 30
0.0
 11
1553.251294934981
 21
928.1986063518788
 31
0.0
  0
LINE
  5
86BF
330
249
100
AcDbEntity
  8
0
 62
     2
100
AcDbLine
 10
1536.519808440657
 20
919.5443891996422
 30
0.0
 11
1555.958950994492
 21
922.9638046368229
 31
0.0
  0
LINE
  5
86C0
330
249
100
AcDbEntity
  8
0
 62
     2
100
AcDbLine
 10
1555.958950994492
 20
922.9638046368229
 30
0.0
 11
1553.251294934981
 21
928.1986063518788
 31
0.0
  0
MTEXT
  5
86C1
330
249
100
AcDbEntity
  8
ALL_DETAIL_ITEM
  6
Continuous
 62
     2
100
AcDbMText
 10
1862.243677964839
 20
760.1166337798747
 30
0.0
 40
15.0
 41
0.0
 71
     3
 72
     1
  1
{BKF 500-560 M 1:5}
 73
     1
 44
1.0
1001
ACAD
1000
ACAD_MTEXT_DEFINED_HEIGHT_BEGIN
1070
    46
1040
15.0
1000
ACAD_MTEXT_DEFINED_HEIGHT_END
  0
LINE
  5
86D2
330
249
100
AcDbEntity
  8
ALL_ASSEM_MEMBER
  6
Continuous
 62
     9
100
AcDbLine
 10
1483.536599024741
 20
858.5650689622479
 30
0.0
 11
1663.536599006742
 21
858.5650689622479
 31
0.0
  0
LINE
  5
86D4
330
249
100
AcDbEntity
  8
ALL_ASSEM_MEMBER
  6
HIDDEN
 62
     8
100
AcDbLine
 10
1864.115913291875
 20
887.665066404748
 30
0.0
 11
1890.290729057266
 21
858.5650689622479
 31
0.0
  0
LINE
  5
86D6
330
249
100
AcDbEntity
  8
0
100
AcDbLine
 10
1710.290729075266
 20
836.5650689748479
 30
0.0
 11
1890.290729057266
 21
836.5650689748479
 31
0.0
  0
LINE
  5
86D8
330
249
100
AcDbEntity
  8
ALL_ASSEM_MEMBER
  6
HIDDEN
 62
     8
100
AcDbLine
 10
1710.290729075266
 20
940.5650689748479
 30
0.0
 11
1736.465544840658
 21
911.4650715323478
 31
0.0
  0
LINE
  5
86D9
330
249
100
AcDbEntity
  8
ALL_ASSEM_MEMBER
  6
Continuous
 62
     7
100
AcDbLine
 10
1712.290729075266
 20
968.2650689622778
 30
0.0
 11
1710.890729075267
 21
968.2650689622778
 31
0.0
  0
ARC
  5
86DA
330
249
100
AcDbEntity
  8
ALL_ASSEM_MEMBER
  6
Continuous
 62
     7
100
AcDbCircle
 10
1710.890729075267
 20
967.6650689622778
 30
0.0
 40
0.6
100
AcDbArc
 50
90.0
 51
180.0
  0
LINE
  5
86DB
330
249
100
AcDbEntity
  8
ALL_ASSEM_MEMBER
  6
Continuous
 62
     7
100
AcDbLine
 10
1712.290729075266
 20
830.565061474848
 30
0.0
 11
1710.890729075267
 21
830.565061474848
 31
0.0
  0
ARC
  5
86DC
330
249
100
AcDbEntity
  8
ALL_ASSEM_MEMBER
  6
Continuous
 62
     7
100
AcDbCircle
 10
1710.890729075267
 20
831.1650614748479
 30
0.0
 40
0.6
100
AcDbArc
 50
180.0
 51
270.0
  0
LINE
  5
86DD
330
249
100
AcDbEntity
  8
ALL_ASSEM_MEMBER
  6
Continuous
 62
     7
100
AcDbLine
 10
1888.290729057266
 20
968.2650689622778
 30
0.0
 11
1889.690729057266
 21
968.2650689622778
 31
0.0
  0
ARC
  5
86DE
330
249
100
AcDbEntity
  8
ALL_ASSEM_MEMBER
  6
Continuous
 62
     7
100
AcDbCircle
 10
1889.690729057266
 20
967.6650689622778
 30
0.0
 40
0.6
100
AcDbArc
 50
0.0
 51
90.0
  0
LINE
  5
86DF
330
249
100
AcDbEntity
  8
ALL_ASSEM_MEMBER
  6
Continuous
 62
     7
100
AcDbLine
 10
1888.290729057266
 20
830.565061474848
 30
0.0
 11
1889.690729057266
 21
830.565061474848
 31
0.0
  0
ARC
  5
86E0
330
249
100
AcDbEntity
  8
ALL_ASSEM_MEMBER
  6
Continuous
 62
     7
100
AcDbCircle
 10
1889.690729057266
 20
831.1650614748479
 30
0.0
 40
0.6
100
AcDbArc
 50
270.0
 51
0.0
  0
LINE
  5
86E1
330
249
100
AcDbEntity
  8
02___PRT_ALL_AXES
  6
CENTER
 62
     2
100
AcDbLine
 10
1800.290729066266
 20
1027.965068955908
 30
0.0
 11
1800.290729066266
 21
965.0091301868796
 31
0.0
  0
LINE
  5
86E2
330
249
100
AcDbEntity
  8
0
 62
     2
100
AcDbLine
 10
1680.502121413389
 20
886.1481937566898
 30
0.0
 11
1722.466063207
 21
886.1481937566898
 31
0.0
  0
LINE
  5
86E3
330
249
100
AcDbEntity
  8
0
 62
     2
100
AcDbLine
 10
1722.466063207
 20
886.1481937566898
 30
0.0
 11
1703.628916001868
 21
892.0417962485924
 31
0.0
  0
LINE
  5
86E4
330
249
100
AcDbEntity
  8
0
 62
     2
100
AcDbLine
 10
1703.628916001868
 20
892.0417962485924
 30
0.0
 11
1703.628916001868
 21
886.1481937566898
 31
0.0
  0
LINE
  5
86E5
330
249
100
AcDbEntity
  8
0
 62
     2
100
AcDbLine
 10
1722.466063207
 20
886.1481937566898
 30
0.0
 11
1703.628916001868
 21
880.2545912647873
 31
0.0
  0
LINE
  5
86E6
330
249
100
AcDbEntity
  8
0
 62
     2
100
AcDbLine
 10
1703.628916001868
 20
880.2545912647873
 30
0.0
 11
1703.628916001868
 21
886.1481937566898
 31
0.0
  0
LINE
  5
86E7
330
249
100
AcDbEntity
  8
0
 62
     2
100
AcDbLine
 10
1878.678656900598
 20
918.2355107807548
 30
0.0
 11
1920.642598694209
 21
918.2355107807548
 31
0.0
  0
LINE
  5
86E8
330
249
100
AcDbEntity
  8
0
 62
     2
100
AcDbLine
 10
1920.642598694209
 20
918.2355107807548
 30
0.0
 11
1901.805451489078
 21
924.1291132726574
 31
0.0
  0
LINE
  5
86E9
330
249
100
AcDbEntity
  8
0
 62
     2
100
AcDbLine
 10
1901.805451489078
 20
924.1291132726574
 30
0.0
 11
1901.805451489078
 21
918.2355107807548
 31
0.0
  0
LINE
  5
86EA
330
249
100
AcDbEntity
  8
0
 62
     2
100
AcDbLine
 10
1920.642598694209
 20
918.2355107807548
 30
0.0
 11
1901.805451489078
 21
912.3419082888521
 31
0.0
  0
LINE
  5
86EB
330
249
100
AcDbEntity
  8
0
 62
     2
100
AcDbLine
 10
1901.805451489078
 20
912.3419082888521
 30
0.0
 11
1901.805451489078
 21
918.2355107807548
 31
0.0
  0
ENDSEC
  0
SECTION
  2
OBJECTS
  0
DICTIONARY
  5
C
330
0
100
AcDbDictionary
281
     1
  3
ACAD_CIP_PREVIOUS_PRODUCT_INFO
350
83AC
  3
ACAD_DETAILVIEWSTYLE
350
83A8
  3
ACAD_GROUP
350
D
  3
ACAD_IMAGE_VARS
350
84C1
  3
ACAD_LAYOUT
350
1A
  3
ACAD_MLINESTYLE
350
17
  3
ACAD_PLOTSETTINGS
350
19
  3
ACAD_PLOTSTYLENAME
350
E
  3
ACAD_SCALELIST
350
8392
  3
ACAD_SECTIONVIEWSTYLE
350
83A6
  3
AcDbVariableDictionary
350
8465
  3
AcDsDecomposeData
350
8481
  3
APPDATA
350
84BF
  3
DWGPROPS
350
86FA
  0
DICTIONARY
  5
845A
330
2
100
AcDbDictionary
280
     1
281
     1
  3
ACAD_LAYERSTATES
360
845B
  0
DICTIONARY
  5
83C3
330
10
100
AcDbDictionary
280
     1
281
     1
  3
ADSK_XREC_LAYER_RECONCILED
360
83C4
  0
DICTIONARY
  5
83D9
330
204
100
AcDbDictionary
280
     1
281
     1
  3
ADSK_XREC_LAYER_RECONCILED
360
83DA
  0
DICTIONARY
  5
840F
330
21F
100
AcDbDictionary
280
     1
281
     1
  3
ADSK_XREC_LAYER_RECONCILED
360
8410
  0
DICTIONARY
  5
8421
330
228
100
AcDbDictionary
280
     1
281
     1
  3
ADSK_XREC_LAYER_RECONCILED
360
8422
  0
XRECORD
  5
83AC
102
{ACAD_REACTORS
330
C
102
}
330
C
100
AcDbXrecord
280
     1
300
ACD
300
2015
300
ACD_F_S
  0
DICTIONARY
  5
83A8
102
{ACAD_REACTORS
330
C
102
}
330
C
100
AcDbDictionary
281
     1
  3
Metric50
350
83A9
  0
DICTIONARY
  5
D
102
{ACAD_REACTORS
330
C
102
}
330
C
100
AcDbDictionary
281
     1
  0
RASTERVARIABLES
  5
84C1
102
{ACAD_REACTORS
330
C
102
}
330
C
100
AcDbRasterVariables
 90
        0
 70
     1
 71
     1
 72
     1
  0
DICTIONARY
  5
1A
102
{ACAD_REACTORS
330
C
102
}
330
C
100
AcDbDictionary
281
     1
  3
Layout1
350
8359
  3
Model
350
8358
  0
DICTIONARY
  5
17
102
{ACAD_REACTORS
330
C
102
}
330
C
100
AcDbDictionary
281
     1
  3
Standard
350
18
  0
DICTIONARY
  5
19
102
{ACAD_REACTORS
330
C
102
}
330
C
100
AcDbDictionary
281
     1
  0
ACDBDICTIONARYWDFLT
  5
E
102
{ACAD_REACTORS
330
C
102
}
330
C
100
AcDbDictionary
281
     1
  3
Normal
350
F
100
AcDbDictionaryWithDefault
340
F
  0
DICTIONARY
  5
8392
102
{ACAD_REACTORS
330
C
102
}
330
C
100
AcDbDictionary
281
     1
  3
A0
350
8393
  3
A1
350
8394
  3
A2
350
8395
  3
A3
350
8396
  3
A4
350
8397
  3
A5
350
8398
  3
A6
350
8399
  3
A7
350
839A
  3
A8
350
839B
  3
A9
350
839C
  3
B0
350
839D
  3
B1
350
839E
  3
B2
350
839F
  3
B3
350
83A0
  3
B4
350
83A1
  3
B5
350
83A2
  3
B6
350
83A3
  0
DICTIONARY
  5
83A6
102
{ACAD_REACTORS
330
C
102
}
330
C
100
AcDbDictionary
281
     1
  3
Metric50
350
83A7
  0
DICTIONARY
  5
8465
102
{ACAD_REACTORS
330
C
102
}
330
C
100
AcDbDictionary
281
     1
  3
DIMASSOC
350
8476
  3
INDEXCTL
350
8475
  3
SORTENTS
350
8474
  0
DICTIONARY
  5
8481
102
{ACAD_REACTORS
330
C
102
}
330
C
100
AcDbDictionary
281
     1
  3
AcDsRecords
350
8483
  3
AcDsSchemas
350
8482
1001
ACAD
1070
     2
  0
DICTIONARY
  5
84BF
102
{ACAD_REACTORS
330
C
102
}
330
C
100
AcDbDictionary
281
     1
  0
XRECORD
  5
86FA
102
{ACAD_REACTORS
330
C
102
}
330
C
100
AcDbXrecord
280
     1
  1
DWGPROPS COOKIE
  2

  3

  4

  6

  7

  8
d610igzo
  9

300
=
301
=
302
=
303
=
304
=
305
=
306
=
307
=
308
=
309
=
 40
0.0
 41
2457664.290837095
 42
2457671.641430243
  1

 90
        0
  0
DICTIONARY
  5
845B
102
{ACAD_REACTORS
330
845A
102
}
330
845A
100
AcDbDictionary
281
     1
  0
XRECORD
  5
83C4
102
{ACAD_REACTORS
330
83C3
102
}
330
83C3
100
AcDbXrecord
280
     1
290
     1
  0
XRECORD
  5
83DA
102
{ACAD_REACTORS
330
83D9
102
}
330
83D9
100
AcDbXrecord
280
     1
290
     1
  0
XRECORD
  5
8410
102
{ACAD_REACTORS
330
840F
102
}
330
840F
100
AcDbXrecord
280
     1
290
     1
  0
XRECORD
  5
8422
102
{ACAD_REACTORS
330
8421
102
}
330
8421
100
AcDbXrecord
280
     1
290
     1
  0
ACDBDETAILVIEWSTYLE
  5
83A9
102
{ACAD_REACTORS
330
83A8
102
}
102
{ACAD_XDICTIONARY
360
8462
102
}
330
83A8
100
AcDbModelDocViewStyle
 70
     0
  3
Metric50
290
     0
100
AcDbDetailViewStyle
 70
     0
 71
     0
 90
        3
 71
     1
340
11
 40
5.0
340
0
 40
5.0
300

 40
0.0
280
     1
 71
     2
340
16
 90
       25
 71
     3
340
11
 40
5.0
 90
        0
 40
15.0
 90
        1
300
%<\AcVar ViewDetailId>% (%<\AcVar ViewScale \f "%sn">%)
 71
     4
340
16
 90
       25
340
16
 90
       25
280
     0
  0
LAYOUT
  5
8359
102
{ACAD_REACTORS
330
1A
102
}
330
1A
100
AcDbPlotSettings
  1

  2
none_device
  4
ISO_A2_(594.00_x_420.00_MM)
  6

 40
0.0
 41
0.0
 42
0.0
 43
0.0
 44
594.0
 45
420.0
 46
0.0
 47
0.0
 48
0.0
 49
0.0
140
0.0
141
0.0
142
1.0
143
1.0
 70
     0
 72
     1
 73
     0
 74
     0
  7

 75
     0
147
1.0
148
0.0
149
0.0
100
AcDbLayout
  1
Layout1
 70
     1
 71
     1
 10
0.0
 20
0.0
 11
12.0
 21
9.0
 12
0.0
 22
0.0
 32
0.0
 14
1.000000000000000E+20
 24
1.000000000000000E+20
 34
1.000000000000000E+20
 15
-1.000000000000000E+20
 25
-1.000000000000000E+20
 35
-1.000000000000000E+20
146
0.0
 13
0.0
 23
0.0
 33
0.0
 16
1.0
 26
0.0
 36
0.0
 17
0.0
 27
1.0
 37
0.0
 76
     0
330
24A
  0
LAYOUT
  5
8358
102
{ACAD_REACTORS
330
1A
102
}
330
1A
100
AcDbPlotSettings
  1

  2
none_device
  4
ISO_A2_(594.00_x_420.00_MM)
  6

 40
0.0
 41
0.0
 42
0.0
 43
0.0
 44
594.0
 45
420.0
 46
0.0
 47
0.0
 48
0.0
 49
0.0
140
0.0
141
0.0
142
1.0
143
1.0
 70
  1024
 72
     1
 73
     0
 74
     0
  7

 75
     0
147
1.0
148
0.0
149
0.0
100
AcDbLayout
  1
Model
 70
     0
 71
     0
 10
1424.918103842792
 20
541.9218351853252
 11
1943.908522017672
 21
1051.873233014634
 12
0.0
 22
0.0
 32
0.0
 14
0.0
 24
0.0
 34
0.0
 15
0.0
 25
0.0
 35
0.0
146
0.0
 13
0.0
 23
0.0
 33
0.0
 16
1.0
 26
0.0
 36
0.0
 17
0.0
 27
1.0
 37
0.0
 76
     0
330
249
331
1F4
  0
MLINESTYLE
  5
18
102
{ACAD_REACTORS
330
17
102
}
330
17
100
AcDbMlineStyle
  2
STANDARD
 70
     0
  3

 62
   256
 51
90.0
 52
90.0
 71
     2
 49
0.5
 62
   256
  6
BYLAYER
 49
-0.5
 62
   256
  6
BYLAYER
  0
ACDBPLACEHOLDER
  5
F
102
{ACAD_REACTORS
330
E
102
}
330
E
  0
SCALE
  5
8393
102
{ACAD_REACTORS
330
8392
102
}
330
8392
100
AcDbScale
 70
     0
300
1:1
140
1.0
141
1.0
290
     1
  0
SCALE
  5
8394
102
{ACAD_REACTORS
330
8392
102
}
330
8392
100
AcDbScale
 70
     0
300
1:2
140
1.0
141
2.0
290
     0
  0
SCALE
  5
8395
102
{ACAD_REACTORS
330
8392
102
}
330
8392
100
AcDbScale
 70
     0
300
1:4
140
1.0
141
4.0
290
     0
  0
SCALE
  5
8396
102
{ACAD_REACTORS
330
8392
102
}
330
8392
100
AcDbScale
 70
     0
300
1:5
140
1.0
141
5.0
290
     0
  0
SCALE
  5
8397
102
{ACAD_REACTORS
330
8392
102
}
330
8392
100
AcDbScale
 70
     0
300
1:8
140
1.0
141
8.0
290
     0
  0
SCALE
  5
8398
102
{ACAD_REACTORS
330
8392
102
}
330
8392
100
AcDbScale
 70
     0
300
1:10
140
1.0
141
10.0
290
     0
  0
SCALE
  5
8399
102
{ACAD_REACTORS
330
8392
102
}
330
8392
100
AcDbScale
 70
     0
300
1:16
140
1.0
141
16.0
290
     0
  0
SCALE
  5
839A
102
{ACAD_REACTORS
330
8392
102
}
330
8392
100
AcDbScale
 70
     0
300
1:20
140
1.0
141
20.0
290
     0
  0
SCALE
  5
839B
102
{ACAD_REACTORS
330
8392
102
}
330
8392
100
AcDbScale
 70
     0
300
1:30
140
1.0
141
30.0
290
     0
  0
SCALE
  5
839C
102
{ACAD_REACTORS
330
8392
102
}
330
8392
100
AcDbScale
 70
     0
300
1:40
140
1.0
141
40.0
290
     0
  0
SCALE
  5
839D
102
{ACAD_REACTORS
330
8392
102
}
330
8392
100
AcDbScale
 70
     0
300
1:50
140
1.0
141
50.0
290
     0
  0
SCALE
  5
839E
102
{ACAD_REACTORS
330
8392
102
}
330
8392
100
AcDbScale
 70
     0
300
1:100
140
1.0
141
100.0
290
     0
  0
SCALE
  5
839F
102
{ACAD_REACTORS
330
8392
102
}
330
8392
100
AcDbScale
 70
     0
300
2:1
140
2.0
141
1.0
290
     0
  0
SCALE
  5
83A0
102
{ACAD_REACTORS
330
8392
102
}
330
8392
100
AcDbScale
 70
     0
300
4:1
140
4.0
141
1.0
290
     0
  0
SCALE
  5
83A1
102
{ACAD_REACTORS
330
8392
102
}
330
8392
100
AcDbScale
 70
     0
300
8:1
140
8.0
141
1.0
290
     0
  0
SCALE
  5
83A2
102
{ACAD_REACTORS
330
8392
102
}
330
8392
100
AcDbScale
 70
     0
300
10:1
140
10.0
141
1.0
290
     0
  0
SCALE
  5
83A3
102
{ACAD_REACTORS
330
8392
102
}
330
8392
100
AcDbScale
 70
     0
300
100:1
140
100.0
141
1.0
290
     0
  0
ACDBSECTIONVIEWSTYLE
  5
83A7
102
{ACAD_REACTORS
330
83A6
102
}
102
{ACAD_XDICTIONARY
360
8460
102
}
330
83A6
100
AcDbModelDocViewStyle
 70
     0
  3
Metric50
290
     0
100
AcDbSectionViewStyle
 70
     0
 71
     0
 90
      102
 71
     1
340
11
 40
5.0
340
0
340
0
 40
5.0
300
I, O, Q, S, X, Z
 40
10.0
 90
        0
 40
2.5
 90
        0
 71
     2
340
16
 90
       25
340
16
 90
       50
 40
5.0
 40
2.5
 40
5.0
 71
     3
340
11
 40
5.0
 90
        0
 40
15.0
 90
        1
300
%<\AcVar ViewSectionStartId>%-%<\AcVar ViewSectionEndId>% (%<\AcVar ViewScale \f "%sn">%)
 71
     4
300
ANSI31
 40
1.0
 90
        0
290
     0
290
     0
 90
        6
 40
0.0
 40
1.570796326794896
 40
0.2617993877991494
 40
1.308996938995747
 40
-0.2617993877991494
 40
1.832595714594046
  0
DICTIONARYVAR
  5
8476
102
{ACAD_REACTORS
330
8465
102
}
330
8465
100
DictionaryVariables
280
     0
  1
1
  0
DICTIONARYVAR
  5
8475
102
{ACAD_REACTORS
330
8465
102
}
330
8465
100
DictionaryVariables
280
     0
  1
0
  0
DICTIONARYVAR
  5
8474
102
{ACAD_REACTORS
330
8465
102
}
330
8465
100
DictionaryVariables
280
     0
  1
127
  0
DICTIONARY
  5
8483
102
{ACAD_REACTORS
330
8481
102
}
330
8481
100
AcDbDictionary
281
     1
  0
DICTIONARY
  5
8482
102
{ACAD_REACTORS
330
8481
102
}
330
8481
100
AcDbDictionary
281
     1
  3
140699568881088
350
847C
  3
140699568881104
350
847D
  3
140699568881120
350
847E
  3
140699568881136
350
847F
  3
140699568881152
350
8480
  0
DICTIONARY
  5
8462
330
83A9
100
AcDbDictionary
280
     1
281
     1
  3
ACAD_XREC_ROUNDTRIP
360
84BE
  0
DICTIONARY
  5
8460
330
83A7
100
AcDbDictionary
280
     1
281
     1
  3
ACAD_XREC_ROUNDTRIP
360
84BD
  0
XRECORD
  5
847C
102
{ACAD_REACTORS
330
8482
102
}
330
8482
100
AcDbXrecord
280
     1
  1
AcDb_Thumbnail_Schema
102
{ATTRRECORD
341
847D
  2
AcDbDs::TreatedAsObjectData
280
     1
291
     1
102
ATTRRECORD}
102
{ATTRRECORD
341
847E
  2
AcDbDs::Legacy
280
     1
291
     1
102
ATTRRECORD}
  2
AcDbDs::ID
280
    10
 91
        8
102
{ATTRRECORD
341
847F
  2
AcDs:Indexable
280
     1
291
     1
102
ATTRRECORD}
102
{ATTRRECORD
341
8480
  2
AcDbDs::HandleAttribute
280
     7
282
     1
102
ATTRRECORD}
  2
Thumbnail_Data
280
    15
 91
        0
  0
XRECORD
  5
847D
102
{ACAD_REACTORS
330
8482
102
}
330
8482
100
AcDbXrecord
280
     1
  1
AcDbDs::TreatedAsObjectDataSchema
  2
AcDbDs::TreatedAsObjectData
280
     1
 91
        0
  0
XRECORD
  5
847E
102
{ACAD_REACTORS
330
8482
102
}
330
8482
100
AcDbXrecord
280
     1
  1
AcDbDs::LegacySchema
  2
AcDbDs::Legacy
280
     1
 91
        0
  0
XRECORD
  5
847F
102
{ACAD_REACTORS
330
8482
102
}
330
8482
100
AcDbXrecord
280
     1
  1
AcDbDs::IndexedPropertySchema
  2
AcDs:Indexable
280
     1
 91
        0
  0
XRECORD
  5
8480
102
{ACAD_REACTORS
330
8482
102
}
330
8482
100
AcDbXrecord
280
     1
  1
AcDbDs::HandleAttributeSchema
  2
AcDbDs::HandleAttribute
280
     7
 91
        1
284
     1
  0
XRECORD
  5
84BE
102
{ACAD_REACTORS
330
8462
102
}
330
8462
100
AcDbXrecord
280
     1
102
DISPLAYNAME
  1
Metric50
102
FLAGS
 90
        0
  0
XRECORD
  5
84BD
102
{ACAD_REACTORS
330
8460
102
}
330
8460
100
AcDbXrecord
280
     1
102
DISPLAYNAME
  1
Metric50
102
FLAGS
 90
        0
  0
ENDSEC
  0
EOF
