  0
SECTION
  2
HEADER
  9
$ACADVER
  1
AC1015
  9
$ACADMAINTVER
 70
     6
  9
$DWGCODEPAGE
  3
ANSI_1252
  9
$INSBASE
 10
0.0
 20
0.0
 30
0.0
  9
$EXTMIN
 10
-89.43368013327444
 20
1.256896380931011
 30
0.0
  9
$EXTMAX
 10
320.0220711525521
 20
406.5251807086234
 30
0.0
  9
$LIMMIN
 10
-106.9473595969862
 20
1.601185636598757
  9
$LIMMAX
 10
328.2325489389659
 20
428.4478618814369
  9
$ORTHOMODE
 70
     1
  9
$REGENMODE
 70
     1
  9
$FILLMODE
 70
     1
  9
$QTEXTMODE
 70
     0
  9
$MIRRTEXT
 70
     0
  9
$LTSCALE
 40
32.67
  9
$ATTMODE
 70
     1
  9
$TEXTSIZE
 40
0.2
  9
$TRACEWID
 40
0.05
  9
$TEXTSTYLE
  7
STANDARD
  9
$CLAYER
  8
0
  9
$CELTYPE
  6
BYLAYER
  9
$CECOLOR
 62
   256
  9
$CELTSCALE
 40
1.0
  9
$DISPSILH
 70
     0
  9
$DIMSCALE
 40
1.0
  9
$DIMASZ
 40
3.5
  9
$DIMEXO
 40
0.0
  9
$DIMDLI
 40
22.572
  9
$DIMRND
 40
0.0
  9
$DIMDLE
 40
0.0
  9
$DIMEXE
 40
1.0
  9
$DIMTP
 40
0.01
  9
$DIMTM
 40
0.01
  9
$DIMTXT
 40
2.5
  9
$DIMCEN
 40
5.346
  9
$DIMTSZ
 40
0.0
  9
$DIMTOL
 70
     1
  9
$DIMLIM
 70
     0
  9
$DIMTIH
 70
     1
  9
$DIMTOH
 70
     1
  9
$DIMSE1
 70
     0
  9
$DIMSE2
 70
     0
  9
$DIMTAD
 70
     0
  9
$DIMZIN
 70
     0
  9
$DIMBLK
  1

  9
$DIMASO
 70
     1
  9
$DIMSHO
 70
     1
  9
$DIMPOST
  1

  9
$DIMAPOST
  1

  9
$DIMALT
 70
     0
  9
$DIMALTD
 70
     2
  9
$DIMALTF
 40
25.4
  9
$DIMLFAC
 40
1.0
  9
$DIMTOFL
 70
     0
  9
$DIMTVP
 40
0.0
  9
$DIMTIX
 70
     0
  9
$DIMSOXD
 70
     0
  9
$DIMSAH
 70
     0
  9
$DIMBLK1
  1

  9
$DIMBLK2
  1

  9
$DIMSTYLE
  2
STANDARD
  9
$DIMCLRD
 70
     0
  9
$DIMCLRE
 70
     0
  9
$DIMCLRT
 70
     0
  9
$DIMTFAC
 40
1.0
  9
$DIMGAP
 40
0.625
  9
$DIMJUST
 70
     0
  9
$DIMSD1
 70
     0
  9
$DIMSD2
 70
     0
  9
$DIMTOLJ
 70
     1
  9
$DIMTZIN
 70
     0
  9
$DIMALTZ
 70
     0
  9
$DIMALTTZ
 70
     0
  9
$DIMUPT
 70
     0
  9
$DIMDEC
 70
     4
  9
$DIMTDEC
 70
     4
  9
$DIMALTU
 70
     2
  9
$DIMALTTD
 70
     2
  9
$DIMTXSTY
  7
STANDARD
  9
$DIMAUNIT
 70
     0
  9
$DIMADEC
 70
     0
  9
$DIMALTRND
 40
0.0
  9
$DIMAZIN
 70
     0
  9
$DIMDSEP
 70
    44
  9
$DIMATFIT
 70
     3
  9
$DIMFRAC
 70
     0
  9
$DIMLDRBLK
  1

  9
$DIMLUNIT
 70
     2
  9
$DIMLWD
 70
    -2
  9
$DIMLWE
 70
    -2
  9
$DIMTMOVE
 70
     0
  9
$LUNITS
 70
     2
  9
$LUPREC
 70
     4
  9
$SKETCHINC
 40
0.1
  9
$FILLETRAD
 40
0.0
  9
$AUNITS
 70
     0
  9
$AUPREC
 70
     0
  9
$MENU
  1
.
  9
$ELEVATION
 40
0.0
  9
$PELEVATION
 40
0.0
  9
$THICKNESS
 40
0.0
  9
$LIMCHECK
 70
     0
  9
$CHAMFERA
 40
0.0
  9
$CHAMFERB
 40
0.0
  9
$CHAMFERC
 40
0.0
  9
$CHAMFERD
 40
0.0
  9
$SKPOLY
 70
     0
  9
$TDCREATE
 40
2457664.320904502
  9
$TDUCREATE
 40
2457664.279237836
  9
$TDUPDATE
 40
2457837.568654201
  9
$TDUUPDATE
 40
2457837.526987535
  9
$TDINDWG
 40
0.0554155787
  9
$TDUSRTIMER
 40
2457837.526328403
  9
$USRTIMER
 70
     1
  9
$ANGBASE
 50
0.0
  9
$ANGDIR
 70
     0
  9
$PDMODE
 70
     3
  9
$PDSIZE
 40
6.0
  9
$PLINEWID
 40
0.0
  9
$SPLFRAME
 70
     0
  9
$SPLINETYPE
 70
     6
  9
$SPLINESEGS
 70
     8
  9
$HANDSEED
  5
71E6
  9
$SURFTAB1
 70
     6
  9
$SURFTAB2
 70
     6
  9
$SURFTYPE
 70
     6
  9
$SURFU
 70
     6
  9
$SURFV
 70
     6
  9
$UCSBASE
  2

  9
$UCSNAME
  2

  9
$UCSORG
 10
0.0
 20
0.0
 30
0.0
  9
$UCSXDIR
 10
1.0
 20
0.0
 30
0.0
  9
$UCSYDIR
 10
0.0
 20
1.0
 30
0.0
  9
$UCSORTHOREF
  2

  9
$UCSORTHOVIEW
 70
     0
  9
$UCSORGTOP
 10
0.0
 20
0.0
 30
0.0
  9
$UCSORGBOTTOM
 10
0.0
 20
0.0
 30
0.0
  9
$UCSORGLEFT
 10
0.0
 20
0.0
 30
0.0
  9
$UCSORGRIGHT
 10
0.0
 20
0.0
 30
0.0
  9
$UCSORGFRONT
 10
0.0
 20
0.0
 30
0.0
  9
$UCSORGBACK
 10
0.0
 20
0.0
 30
0.0
  9
$PUCSBASE
  2

  9
$PUCSNAME
  2

  9
$PUCSORG
 10
0.0
 20
0.0
 30
0.0
  9
$PUCSXDIR
 10
1.0
 20
0.0
 30
0.0
  9
$PUCSYDIR
 10
0.0
 20
1.0
 30
0.0
  9
$PUCSORTHOREF
  2

  9
$PUCSORTHOVIEW
 70
     0
  9
$PUCSORGTOP
 10
0.0
 20
0.0
 30
0.0
  9
$PUCSORGBOTTOM
 10
0.0
 20
0.0
 30
0.0
  9
$PUCSORGLEFT
 10
0.0
 20
0.0
 30
0.0
  9
$PUCSORGRIGHT
 10
0.0
 20
0.0
 30
0.0
  9
$PUCSORGFRONT
 10
0.0
 20
0.0
 30
0.0
  9
$PUCSORGBACK
 10
0.0
 20
0.0
 30
0.0
  9
$USERI1
 70
     0
  9
$USERI2
 70
     0
  9
$USERI3
 70
     0
  9
$USERI4
 70
     0
  9
$USERI5
 70
     0
  9
$USERR1
 40
0.0
  9
$USERR2
 40
0.0
  9
$USERR3
 40
0.0
  9
$USERR4
 40
0.0
  9
$USERR5
 40
0.0
  9
$WORLDVIEW
 70
     1
  9
$SHADEDGE
 70
     3
  9
$SHADEDIF
 70
    70
  9
$TILEMODE
 70
     1
  9
$MAXACTVP
 70
    64
  9
$PINSBASE
 10
0.0
 20
0.0
 30
0.0
  9
$PLIMCHECK
 70
     0
  9
$PEXTMIN
 10
1.000000000000000E+20
 20
1.000000000000000E+20
 30
1.000000000000000E+20
  9
$PEXTMAX
 10
-1.000000000000000E+20
 20
-1.000000000000000E+20
 30
-1.000000000000000E+20
  9
$PLIMMIN
 10
0.0
 20
0.0
  9
$PLIMMAX
 10
594.0
 20
420.0
  9
$UNITMODE
 70
     0
  9
$VISRETAIN
 70
     1
  9
$PLINEGEN
 70
     0
  9
$PSLTSCALE
 70
     1
  9
$TREEDEPTH
 70
  3020
  9
$CMLSTYLE
  2
Standard
  9
$CMLJUST
 70
     0
  9
$CMLSCALE
 40
1.0
  9
$PROXYGRAPHICS
 70
     1
  9
$MEASUREMENT
 70
     1
  9
$CELWEIGHT
370
    -1
  9
$ENDCAPS
280
     0
  9
$JOINSTYLE
280
     0
  9
$LWDISPLAY
290
     0
  9
$INSUNITS
 70
     4
  9
$HYPERLINKBASE
  1

  9
$STYLESHEET
  1

  9
$XEDIT
290
     1
  9
$CEPSNTYPE
380
     0
  9
$PSTYLEMODE
290
     1
  9
$FINGERPRINTGUID
  2
{8FFECAC3-EC4D-4B5F-9C2F-D5337135DC8F}
  9
$VERSIONGUID
  2
{8831D0C1-2F3B-40C8-A018-225352623A4C}
  9
$EXTNAMES
290
     1
  9
$PSVPSCALE
 40
0.0
  9
$OLESTARTUP
290
     0
  0
ENDSEC
  0
SECTION
  2
CLASSES
  0
CLASS
  1
ACDBDICTIONARYWDFLT
  2
AcDbDictionaryWithDefault
  3
ObjectDBX Classes
 90
        0
280
     0
281
     0
  0
CLASS
  1
ACDBPLACEHOLDER
  2
AcDbPlaceHolder
  3
ObjectDBX Classes
 90
        0
280
     0
281
     0
  0
CLASS
  1
LAYOUT
  2
AcDbLayout
  3
ObjectDBX Classes
 90
        0
280
     0
281
     0
  0
CLASS
  1
MATERIAL
  2
AcDbMaterial
  3
ObjectDBX Classes
 90
     1153
280
     0
281
     0
  0
CLASS
  1
VISUALSTYLE
  2
AcDbVisualStyle
  3
ObjectDBX Classes
 90
     4095
280
     0
281
     0
  0
CLASS
  1
TABLESTYLE
  2
AcDbTableStyle
  3
ObjectDBX Classes
 90
     4095
280
     0
281
     0
  0
CLASS
  1
SCALE
  2
AcDbScale
  3
ObjectDBX Classes
 90
     1153
280
     0
281
     0
  0
CLASS
  1
MLEADERSTYLE
  2
AcDbMLeaderStyle
  3
ACDB_MLEADERSTYLE_CLASS
 90
     4095
280
     0
281
     0
  0
CLASS
  1
ACDBSECTIONVIEWSTYLE
  2
AcDbSectionViewStyle
  3
ObjectDBX Classes
 90
     1025
280
     0
281
     0
  0
CLASS
  1
ACDBDETAILVIEWSTYLE
  2
AcDbDetailViewStyle
  3
ObjectDBX Classes
 90
     1025
280
     0
281
     0
  0
CLASS
  1
DICTIONARYVAR
  2
AcDbDictionaryVar
  3
ObjectDBX Classes
 90
        0
280
     0
281
     0
  0
CLASS
  1
CELLSTYLEMAP
  2
AcDbCellStyleMap
  3
ObjectDBX Classes
 90
     1152
280
     0
281
     0
  0
CLASS
  1
SUN
  2
AcDbSun
  3
SCENEOE
 90
     1153
280
     0
281
     0
  0
CLASS
  1
RASTERVARIABLES
  2
AcDbRasterVariables
  3
ISM
 90
        0
280
     0
281
     0
  0
CLASS
  1
SORTENTSTABLE
  2
AcDbSortentsTable
  3
ObjectDBX Classes
 90
        0
280
     0
281
     0
  0
ENDSEC
  0
SECTION
  2
TABLES
  0
TABLE
  2
VPORT
  5
8
330
0
100
AcDbSymbolTable
 70
     1
  0
VPORT
  5
1F4
330
8
100
AcDbSymbolTableRecord
100
AcDbViewportTableRecord
  2
*ACTIVE
 70
     0
 10
0.0
 20
0.0
 11
1.0
 21
1.0
 12
104.0385378922344
 22
208.6906032096563
 13
0.0
 23
0.0
 14
1.0
 24
1.0
 15
0.0
 25
0.0
 16
0.0
 26
0.0
 36
1.0
 17
0.0
 27
0.0
 37
0.0
 40
553.4555887417222
 41
2.042362002567394
 42
50.0
 43
0.0
 44
0.0
 50
0.0
 51
0.0
 71
    16
 72
   100
 73
     1
 74
     1
 75
     0
 76
     0
 77
     0
 78
     0
281
     0
 65
     1
110
0.0
120
0.0
130
0.0
111
1.0
121
0.0
131
0.0
112
0.0
122
1.0
132
0.0
 79
     0
146
0.0
1001
ACAD_NAV_VCDISPLAY
1070
     3
  0
ENDTAB
  0
TABLE
  2
LTYPE
  5
5
330
0
100
AcDbSymbolTable
 70
     3
  0
LTYPE
  5
14
330
5
100
AcDbSymbolTableRecord
100
AcDbLinetypeTableRecord
  2
BYBLOCK
 70
     0
  3

 72
    65
 73
     0
 40
0.0
  0
LTYPE
  5
15
330
5
100
AcDbSymbolTableRecord
100
AcDbLinetypeTableRecord
  2
BYLAYER
 70
     0
  3

 72
    65
 73
     0
 40
0.0
  0
LTYPE
  5
16
330
5
100
AcDbSymbolTableRecord
100
AcDbLinetypeTableRecord
  2
CONTINUOUS
 70
     0
  3
Solid line
 72
    65
 73
     0
 40
0.0
  0
LTYPE
  5
1F5
330
5
100
AcDbSymbolTableRecord
100
AcDbLinetypeTableRecord
  2
CENTER
 70
     0
  3
____ _ ____ _ ____ _ ____ _ ____ _ ____ _ ____
 72
    65
 73
     4
 40
0.6
 49
0.375
 74
     0
 49
-0.075
 74
     0
 49
0.075
 74
     0
 49
-0.075
 74
     0
  0
LTYPE
  5
1F6
330
5
100
AcDbSymbolTableRecord
100
AcDbLinetypeTableRecord
  2
HIDDEN
 70
     0
  3
- - - - - - - - - - - - - - - - - - - -
 72
    65
 73
     2
 40
0.2
 49
0.1
 74
     0
 49
-0.1
 74
     0
  0
ENDTAB
  0
TABLE
  2
LAYER
  5
2
102
{ACAD_XDICTIONARY
360
70FA
102
}
330
0
100
AcDbSymbolTable
 70
     4
  0
LAYER
  5
10
102
{ACAD_XDICTIONARY
360
6E02
102
}
330
2
100
AcDbSymbolTableRecord
100
AcDbLayerTableRecord
  2
0
 70
     0
 62
     7
  6
CONTINUOUS
370
    -3
390
F
  0
LAYER
  5
204
102
{ACAD_XDICTIONARY
360
6E18
102
}
330
2
100
AcDbSymbolTableRecord
100
AcDbLayerTableRecord
  2
02___PRT_ALL_AXES
 70
     0
 62
     7
  6
CONTINUOUS
370
    -3
390
F
  0
LAYER
  5
21A
102
{ACAD_XDICTIONARY
360
6E44
102
}
330
2
100
AcDbSymbolTableRecord
100
AcDbLayerTableRecord
  2
ALL_ASSEM_MEMBER
 70
     0
 62
     7
  6
CONTINUOUS
370
    -3
390
F
  0
LAYER
  5
221
102
{ACAD_XDICTIONARY
360
6E52
102
}
330
2
100
AcDbSymbolTableRecord
100
AcDbLayerTableRecord
  2
ALL_DETAIL_ITEM
 70
     0
 62
     7
  6
CONTINUOUS
370
    -3
390
F
  0
ENDTAB
  0
TABLE
  2
STYLE
  5
3
330
0
100
AcDbSymbolTable
 70
     1
  0
STYLE
  5
11
330
3
100
AcDbSymbolTableRecord
100
AcDbTextStyleTableRecord
  2
STANDARD
 70
     0
 40
0.0
 41
0.6
 50
0.0
 71
     0
 42
0.2
  3
txt
  4

  0
ENDTAB
  0
TABLE
  2
VIEW
  5
6
330
0
100
AcDbSymbolTable
 70
     0
  0
ENDTAB
  0
TABLE
  2
UCS
  5
7
330
0
100
AcDbSymbolTable
 70
     0
  0
ENDTAB
  0
TABLE
  2
APPID
  5
9
330
0
100
AcDbSymbolTable
 70
     4
  0
APPID
  5
23B
330
9
100
AcDbSymbolTableRecord
100
AcDbRegAppTableRecord
  2
ACAD
 70
     0
  0
APPID
  5
6E7A
330
9
100
AcDbSymbolTableRecord
100
AcDbRegAppTableRecord
  2
ACAD_NAV_VCDISPLAY
 70
     0
  0
APPID
  5
6ECF
330
9
100
AcDbSymbolTableRecord
100
AcDbRegAppTableRecord
  2
ACAD_MLEADERVER
 70
     0
  0
APPID
  5
70C2
330
9
100
AcDbSymbolTableRecord
100
AcDbRegAppTableRecord
  2
ACAD_EXEMPT_FROM_CAD_STANDARDS
 70
     0
  0
ENDTAB
  0
TABLE
  2
DIMSTYLE
  5
A
330
0
100
AcDbSymbolTable
 70
     1
100
AcDbDimStyleTable
  0
DIMSTYLE
105
29E
330
A
100
AcDbSymbolTableRecord
100
AcDbDimStyleTableRecord
  2
STANDARD
 70
     0
 41
3.5
 42
0.0
 44
1.0
 47
0.01
 48
0.01
 71
     1
 73
     0
 74
     0
 77
     1
 78
     8
140
2.5
147
0.625
178
     0
271
     2
272
     2
278
    44
284
     8
340
11
341
23E
342
23E
343
23E
344
23E
  0
ENDTAB
  0
TABLE
  2
BLOCK_RECORD
  5
1
330
0
100
AcDbSymbolTable
 70
     1
  0
BLOCK_RECORD
  5
23C
102
{ACAD_XDICTIONARY
360
70EE
102
}
330
1
100
AcDbSymbolTableRecord
100
AcDbBlockTableRecord
  2
*Model_Space
340
6D97
  0
BLOCK_RECORD
  5
23D
330
1
100
AcDbSymbolTableRecord
100
AcDbBlockTableRecord
  2
*Paper_Space
340
6D98
  0
BLOCK_RECORD
  5
23E
330
1
100
AcDbSymbolTableRecord
100
AcDbBlockTableRecord
  2
_FILLED
340
0
  0
ENDTAB
  0
ENDSEC
  0
SECTION
  2
BLOCKS
  0
BLOCK
  5
20
330
23C
100
AcDbEntity
  8
0
100
AcDbBlockBegin
  2
*Model_Space
 70
     0
 10
0.0
 20
0.0
 30
0.0
  3
*Model_Space
  1
*Model_Space
  0
ENDBLK
  5
21
330
23C
100
AcDbEntity
  8
0
100
AcDbBlockEnd
  0
BLOCK
  5
1C
330
23D
100
AcDbEntity
 67
     1
  8
0
100
AcDbBlockBegin
  2
*Paper_Space
 70
     0
 10
0.0
 20
0.0
 30
0.0
  3
*Paper_Space
  1
*Paper_Space
  0
ENDBLK
  5
1D
330
23D
100
AcDbEntity
 67
     1
  8
0
100
AcDbBlockEnd
  0
BLOCK
  5
382
330
23E
100
AcDbEntity
  8
0
100
AcDbBlockBegin
  2
_FILLED
 70
     0
 10
0.0
 20
0.0
 30
0.0
  3
_FILLED
  1
_FILLED
  0
SOLID
  5
383
330
23E
100
AcDbEntity
  8
0
  6
ByBlock
 62
     0
100
AcDbTrace
 10
0.0
 20
0.0
 30
0.0
 11
-1.0
 21
0.2142857143
 31
0.0
 12
-1.0
 22
-0.2142857143
 32
0.0
 13
-1.0
 23
-0.2142857143
 33
0.0
  0
ENDBLK
  5
384
330
23E
100
AcDbEntity
  8
0
  6
ByBlock
 62
     0
100
AcDbBlockEnd
  0
ENDSEC
  0
SECTION
  2
ENTITIES
  0
LINE
  5
4BAD
330
23C
100
AcDbEntity
  8
0
100
AcDbLine
 10
-88.37485668327437
 20
362.1251838886233
 30
0.0
 11
-88.37485668327444
 21
250.1251922886233
 31
0.0
  0
LINE
  5
4BB2
330
23C
100
AcDbEntity
  8
02___PRT_ALL_AXES
  6
CENTER
 62
     2
100
AcDbLine
 10
-85.3748569082744
 20
269.1251908636233
 30
0.0
 11
-85.3748569082744
 21
265.8222499348734
 31
0.0
  0
LINE
  5
4BB3
330
23C
100
AcDbEntity
  8
02___PRT_ALL_AXES
  6
CENTER
 62
     2
100
AcDbLine
 10
-85.3748569082744
 20
269.1251908636233
 30
0.0
 11
-85.3748569082744
 21
272.4281317923733
 31
0.0
  0
LINE
  5
4BE7
330
23C
100
AcDbEntity
  8
0
100
AcDbLine
 10
-76.26064402948748
 20
365.5393971949101
 30
0.0
 11
-79.6748573357745
 21
362.1251838886233
 31
0.0
  0
LINE
  5
4BE9
330
23C
100
AcDbEntity
  8
0
100
AcDbLine
 10
-88.37485668327444
 20
250.1251922886233
 30
0.0
 11
83.62513041672547
 21
250.1251922886233
 31
0.0
  0
LINE
  5
4BFB
330
23C
100
AcDbEntity
  8
0
100
AcDbLine
 10
-82.27485714077444
 20
256.1251918386233
 30
0.0
 11
77.62513086672558
 21
256.1251918386233
 31
0.0
  0
LINE
  5
4C17
330
23C
100
AcDbEntity
  8
02___PRT_ALL_AXES
  6
CENTER
 62
     2
100
AcDbLine
 10
80.62513064172558
 20
269.1251908636233
 30
0.0
 11
77.3221897129756
 21
269.1251908636233
 31
0.0
  0
LINE
  5
4C18
330
23C
100
AcDbEntity
  8
02___PRT_ALL_AXES
  6
CENTER
 62
     2
100
AcDbLine
 10
-85.3748569082744
 20
269.1251908636233
 30
0.0
 11
-88.6777978370244
 21
269.1251908636233
 31
0.0
  0
LINE
  5
4C19
330
23C
100
AcDbEntity
  8
02___PRT_ALL_AXES
  6
CENTER
 62
     2
100
AcDbLine
 10
-85.3748569082744
 20
269.1251908636233
 30
0.0
 11
-82.07191597952453
 21
269.1251908636233
 31
0.0
  0
LINE
  5
4C1A
330
23C
100
AcDbEntity
  8
02___PRT_ALL_AXES
  6
CENTER
 62
     2
100
AcDbLine
 10
80.62513064172558
 20
269.1251908636233
 30
0.0
 11
83.92807157047554
 21
269.1251908636233
 31
0.0
  0
LINE
  5
4C59
330
23C
100
AcDbEntity
  8
0
100
AcDbLine
 10
-85.01125303860351
 20
357.4887881332942
 30
0.0
 11
-87.01125288860351
 21
359.4887879832942
 31
0.0
  0
LINE
  5
4C5A
330
23C
100
AcDbEntity
  8
0
100
AcDbLine
 10
-85.73846077794529
 20
360.7615800939525
 30
0.0
 11
-83.73846092794531
 21
358.7615802439525
 31
0.0
  0
LINE
  5
4C91
330
23C
100
AcDbEntity
  8
0
100
AcDbLine
 10
-15.57486214327443
 20
366.1251835886235
 30
0.0
 11
-15.57486214327443
 21
383.5251822836233
 31
0.0
  0
LINE
  5
4C95
330
23C
100
AcDbEntity
  8
0
100
AcDbLine
 10
-87.01125288860351
 20
252.7615881939524
 30
0.0
 11
-85.01125303860351
 21
254.7615880439524
 31
0.0
  0
LINE
  5
4C9B
330
23C
100
AcDbEntity
  8
ALL_ASSEM_MEMBER
  6
Continuous
 62
     7
100
AcDbLine
 10
-5.97486286327441
 20
402.7251808436234
 30
0.0
 11
-5.97486286327441
 21
383.5251822836233
 31
0.0
  0
LINE
  5
4C9C
330
23C
100
AcDbEntity
  8
ALL_ASSEM_MEMBER
  6
Continuous
 62
     7
100
AcDbLine
 10
-5.954336540108072
 20
383.5251822836233
 30
0.0
 11
-5.954336540108072
 21
391.7251816686235
 31
0.0
  0
LINE
  5
4CAF
330
23C
100
AcDbEntity
  8
0
100
AcDbLine
 10
-83.73846092794531
 20
253.4887959332942
 30
0.0
 11
-85.73846077794529
 21
251.4887960832942
 31
0.0
  0
LINE
  5
4CE9
330
23C
100
AcDbEntity
  8
0
100
AcDbLine
 10
78.98873466139646
 20
253.4887959332942
 30
0.0
 11
80.98873451139644
 21
251.4887960832942
 31
0.0
  0
LINE
  5
4CEA
330
23C
100
AcDbEntity
  8
0
100
AcDbLine
 10
82.26152662205467
 20
252.7615881939524
 30
0.0
 11
80.2615267720547
 21
254.7615880439524
 31
0.0
  0
LINE
  5
4D39
330
23C
100
AcDbEntity
  8
0
100
AcDbLine
 10
25.2251347967256
 20
402.7251808436234
 30
0.0
 11
25.22513479672561
 21
366.1251835886235
 31
0.0
  0
LINE
  5
4D95
330
23C
100
AcDbEntity
  8
0
100
AcDbLine
 10
80.98873451139644
 20
360.7615800939525
 30
0.0
 11
78.98873466139646
 21
358.7615802439525
 31
0.0
  0
LINE
  5
4D96
330
23C
100
AcDbEntity
  8
0
100
AcDbLine
 10
80.2615267720547
 20
357.4887881332942
 30
0.0
 11
82.26152662205467
 21
359.4887879832942
 31
0.0
  0
LINE
  5
4DB5
330
23C
100
AcDbEntity
  8
0
100
AcDbLine
 10
-88.37485668327437
 20
362.1251838886233
 30
0.0
 11
83.62513041672547
 21
362.1251838886233
 31
0.0
  0
LINE
  5
4DBC
330
23C
100
AcDbEntity
  8
0
100
AcDbLine
 10
-74.84643057320056
 20
366.1251835886235
 30
0.0
 11
70.0967043065341
 21
366.1251835886235
 31
0.0
  0
LINE
  5
4E0A
330
23C
100
AcDbEntity
  8
ALL_ASSEM_MEMBER
  6
Continuous
 62
     7
100
AcDbLine
 10
-15.57486214327443
 20
383.5251822836233
 30
0.0
 11
-2.374863133274431
 21
383.5251822836232
 31
0.0
  0
LINE
  5
4E32
330
23C
100
AcDbEntity
  8
ALL_ASSEM_MEMBER
  6
Continuous
 62
     7
100
AcDbLine
 10
23.42513493172558
 20
404.5251807086235
 30
0.0
 11
-4.174862998274448
 21
404.5251807086235
 31
0.0
  0
LINE
  5
4E5F
330
23C
100
AcDbEntity
  8
0
100
AcDbLine
 10
77.62513086672558
 20
250.1251922886233
 30
0.0
 11
77.62513086672558
 21
362.1251838886233
 31
0.0
  0
LINE
  5
4E61
330
23C
100
AcDbEntity
  8
02___PRT_ALL_AXES
  6
CENTER
 62
     2
100
AcDbLine
 10
80.62513064172558
 20
269.1251908636233
 30
0.0
 11
80.62513064172558
 21
265.8222499348734
 31
0.0
  0
LINE
  5
4E62
330
23C
100
AcDbEntity
  8
02___PRT_ALL_AXES
  6
CENTER
 62
     2
100
AcDbLine
 10
80.62513064172558
 20
269.1251908636233
 30
0.0
 11
80.62513064172558
 21
272.4281317923733
 31
0.0
  0
LINE
  5
4E6B
330
23C
100
AcDbEntity
  8
0
100
AcDbLine
 10
74.92513106922554
 20
362.1251838886233
 30
0.0
 11
71.51091776293865
 21
365.5393971949101
 31
0.0
  0
LINE
  5
4E6C
330
23C
100
AcDbEntity
  8
0
100
AcDbLine
 10
83.62513041672547
 20
250.1251922886233
 30
0.0
 11
83.62513041672547
 21
362.1251838886233
 31
0.0
  0
LINE
  5
4EF8
330
23C
100
AcDbEntity
  8
0
100
AcDbLine
 10
-82.37485713327442
 20
28.05350504800113
 30
0.0
 11
-82.37485713327442
 21
184.0534933480009
 31
0.0
  0
LINE
  5
51FB
330
23C
100
AcDbEntity
  8
0
100
AcDbLine
 10
-82.37485713327442
 20
58.85350273800106
 30
0.0
 11
77.62513086672556
 21
58.85350273800106
 31
0.0
  0
LINE
  5
53CC
330
23C
100
AcDbEntity
  8
0
100
AcDbLine
 10
-20.37486178327438
 20
58.85350273800106
 30
0.0
 11
-20.37486178327438
 21
153.253495658001
 31
0.0
  0
LINE
  5
5447
330
23C
100
AcDbEntity
  8
ALL_ASSEM_MEMBER
  6
Continuous
 62
     7
100
AcDbLine
 10
-15.57486214327443
 20
97.0534998730011
 30
0.0
 11
-15.57486214327443
 21
115.0534985230011
 31
0.0
  0
LINE
  5
54D6
330
23C
100
AcDbEntity
  8
ALL_ASSEM_MEMBER
  6
Continuous
 62
     7
100
AcDbLine
 10
-15.57486214327443
 20
97.0534998730011
 30
0.0
 11
-3.099367245407194
 21
97.0534998730011
 31
0.0
  0
LINE
  5
551D
330
23C
100
AcDbEntity
  8
ALL_ASSEM_MEMBER
  6
HIDDEN
 62
     8
100
AcDbLine
 10
39.81203348541396
 20
105.1640716342376
 30
0.0
 11
39.41556358244336
 21
105.1110471864497
 31
0.0
  0
LINE
  5
56C5
330
23C
100
AcDbEntity
  8
ALL_ASSEM_MEMBER
  6
Continuous
 62
     7
100
AcDbLine
 10
-15.57486214327443
 20
115.0534985230011
 30
0.0
 11
-3.099367245407194
 21
115.0534985230011
 31
0.0
  0
LINE
  5
58F4
330
23C
100
AcDbEntity
  8
0
100
AcDbLine
 10
39.62513371672557
 20
153.2534956580011
 30
0.0
 11
39.62513371672557
 21
58.85350273800106
 31
0.0
  0
LINE
  5
5981
330
23C
100
AcDbEntity
  8
0
100
AcDbLine
 10
-82.37485713327442
 20
153.2534956580011
 30
0.0
 11
77.62513086672556
 21
153.2534956580011
 31
0.0
  0
LINE
  5
5C71
330
23C
100
AcDbEntity
  8
0
100
AcDbLine
 10
77.62513086672558
 20
184.0534933480011
 30
0.0
 11
77.62513086672558
 21
28.05350504800109
 31
0.0
  0
LINE
  5
5D19
330
23C
100
AcDbEntity
  8
0
100
AcDbLine
 10
133.6702132156088
 20
250.7251843386234
 30
0.0
 11
133.6702132156088
 21
361.5251918386233
 31
0.0
  0
LINE
  5
5F8E
330
23C
100
AcDbEntity
  8
ALL_ASSEM_MEMBER
  6
Continuous
 62
     7
100
AcDbLine
 10
196.0702085356089
 20
366.7251835436236
 30
0.0
 11
196.0702085356089
 21
402.7251808436234
 31
0.0
  0
LINE
  5
5FE3
330
23C
100
AcDbEntity
  8
ALL_ASSEM_MEMBER
  6
Continuous
 62
     7
100
AcDbLine
 10
198.6702083406089
 20
363.1251838136234
 30
0.0
 11
198.6702083406089
 21
366.7251835436236
 31
0.0
  0
LINE
  5
6031
330
23C
100
AcDbEntity
  8
ALL_ASSEM_MEMBER
  6
Continuous
 62
     7
100
AcDbLine
 10
202.6702080406089
 20
383.5251822836233
 30
0.0
 11
202.6702080406089
 21
365.5251836336233
 31
0.0
  0
LINE
  5
6154
330
23C
100
AcDbEntity
  8
ALL_ASSEM_MEMBER
  6
Continuous
 62
     7
100
AcDbLine
 10
220.6702066906089
 20
365.5251836336233
 30
0.0
 11
220.6702066906089
 21
383.5251822836233
 31
0.0
  0
LINE
  5
61AE
330
23C
100
AcDbEntity
  8
ALL_ASSEM_MEMBER
  6
Continuous
 62
     7
100
AcDbLine
 10
224.6702063906089
 20
363.1251838136234
 30
0.0
 11
224.6702063906089
 21
366.7251835436236
 31
0.0
  0
LINE
  5
61C9
330
23C
100
AcDbEntity
  8
ALL_ASSEM_MEMBER
  6
Continuous
 62
     7
100
AcDbLine
 10
227.2496798725601
 20
366.7251835436236
 30
0.0
 11
227.2496798725601
 21
391.7251816686235
 31
0.0
  0
LINE
  5
61CA
330
23C
100
AcDbEntity
  8
ALL_ASSEM_MEMBER
  6
Continuous
 62
     7
100
AcDbLine
 10
227.2702061956089
 20
366.7251835436236
 30
0.0
 11
227.2702061956089
 21
402.7251808436234
 31
0.0
  0
LINE
  5
642C
330
23C
100
AcDbEntity
  8
ALL_ASSEM_MEMBER
  6
Continuous
 62
     7
100
AcDbLine
 10
164.4702109056089
 20
363.1251838136234
 30
0.0
 11
258.8702038256089
 21
363.1251838136234
 31
0.0
  0
LINE
  5
64C5
330
23C
100
AcDbEntity
  8
ALL_ASSEM_MEMBER
  6
Continuous
 62
     7
100
AcDbLine
 10
202.6702080406089
 20
365.5251836336233
 30
0.0
 11
220.6702066906089
 21
365.5251836336233
 31
0.0
  0
LINE
  5
654E
330
23C
100
AcDbEntity
  8
ALL_ASSEM_MEMBER
  6
Continuous
 62
     7
100
AcDbLine
 10
220.6702066906089
 20
383.5251822836233
 30
0.0
 11
202.6702080406089
 21
383.5251822836233
 31
0.0
  0
CIRCLE
  5
69AF
330
23C
100
AcDbEntity
  8
0
100
AcDbCircle
 10
-85.3748569082744
 20
269.1251908636233
 30
0.0
 40
0.94999992875
  0
ARC
  5
69B0
330
23C
100
AcDbEntity
  8
0
100
AcDbCircle
 10
-86.3748568332744
 20
252.1251921386233
 30
0.0
 40
0.8999999325000002
100
AcDbArc
 50
135.0
 51
315.0
  0
ARC
  5
69B1
330
23C
100
AcDbEntity
  8
0
100
AcDbCircle
 10
-84.3748569832744
 20
254.1251919886233
 30
0.0
 40
0.8999999325000002
100
AcDbArc
 50
315.0
 51
135.0
  0
ARC
  5
69B6
330
23C
100
AcDbEntity
  8
0
100
AcDbCircle
 10
-70.37485803327445
 20
361.1251839636235
 30
0.0
 40
2.999999774999998
100
AcDbArc
 50
19.47139951969984
 51
160.5286004803011
  0
ARC
  5
69B7
330
23C
100
AcDbEntity
  8
0
100
AcDbCircle
 10
-74.84643057320056
 20
364.1251837386234
 30
0.0
 40
1.99999985
100
AcDbArc
 50
90.0
 51
135.0000000000023
  0
ARC
  5
69BB
330
23C
100
AcDbEntity
  8
ALL_ASSEM_MEMBER
  6
Continuous
 62
     7
100
AcDbCircle
 10
-4.174862998274448
 20
402.7251808436234
 30
0.0
 40
1.799999865
100
AcDbArc
 50
90.0
 51
180.0
  0
ARC
  5
69C1
330
23C
100
AcDbEntity
  8
0
100
AcDbCircle
 10
-86.3748568332744
 20
360.1251840386233
 30
0.0
 40
0.8999999325000002
100
AcDbArc
 50
45.0
 51
225.0
  0
ARC
  5
69C2
330
23C
100
AcDbEntity
  8
0
100
AcDbCircle
 10
-84.3748569832744
 20
358.1251841886235
 30
0.0
 40
0.8999999325000002
100
AcDbArc
 50
225.0
 51
45.0
  0
CIRCLE
  5
69C8
330
23C
100
AcDbEntity
  8
0
100
AcDbCircle
 10
80.62513064172558
 20
269.1251908636233
 30
0.0
 40
0.94999992875
  0
ARC
  5
69C9
330
23C
100
AcDbEntity
  8
0
100
AcDbCircle
 10
79.62513071672558
 20
254.1251919886233
 30
0.0
 40
0.8999999325000002
100
AcDbArc
 50
45.0
 51
225.0
  0
ARC
  5
69CA
330
23C
100
AcDbEntity
  8
0
100
AcDbCircle
 10
81.62513056672546
 20
252.1251921386233
 30
0.0
 40
0.8999999325000002
100
AcDbArc
 50
225.0
 51
45.0
  0
ARC
  5
69D1
330
23C
100
AcDbEntity
  8
0
100
AcDbCircle
 10
65.62513176672556
 20
361.1251839636235
 30
0.0
 40
2.999999774999998
100
AcDbArc
 50
19.47139951969882
 51
160.5286004803011
  0
ARC
  5
69D2
330
23C
100
AcDbEntity
  8
0
100
AcDbCircle
 10
70.0967043065341
 20
364.1251837386234
 30
0.0
 40
1.99999985
100
AcDbArc
 50
45.00000000000058
 51
90.0
  0
ARC
  5
69D9
330
23C
100
AcDbEntity
  8
ALL_ASSEM_MEMBER
  6
Continuous
 62
     7
100
AcDbCircle
 10
23.42513493172558
 20
402.7251808436234
 30
0.0
 40
1.799999865
100
AcDbArc
 50
0.0
 51
90.0
  0
ARC
  5
69E1
330
23C
100
AcDbEntity
  8
0
100
AcDbCircle
 10
81.62513056672546
 20
360.1251840386233
 30
0.0
 40
0.8999999325000002
100
AcDbArc
 50
315.0
 51
135.0
  0
ARC
  5
69E2
330
23C
100
AcDbEntity
  8
0
100
AcDbCircle
 10
79.62513071672558
 20
358.1251841886235
 30
0.0
 40
0.8999999325000002
100
AcDbArc
 50
135.0
 51
315.0
  0
ARC
  5
6B7D
330
23C
100
AcDbEntity
  8
ALL_ASSEM_MEMBER
  6
HIDDEN
 62
     8
100
AcDbCircle
 10
9.625135966725594
 20
106.0534991980011
 30
0.0
 40
19.9999985
100
AcDbArc
 50
153.1973746448
 51
206.8026253552
  0
ARC
  5
6B7E
330
23C
100
AcDbEntity
  8
ALL_ASSEM_MEMBER
  6
Continuous
 62
     7
100
AcDbCircle
 10
9.625135966725594
 20
106.0534991980011
 30
0.0
 40
19.9999985
100
AcDbArc
 50
206.8026253552
 51
153.1973746448
  0
CIRCLE
  5
6B7F
330
23C
100
AcDbEntity
  8
ALL_ASSEM_MEMBER
  6
Continuous
 62
     7
100
AcDbCircle
 10
9.625135966725594
 20
106.0534991980011
 30
0.0
 40
15.59999883
  0
ARC
  5
6CE5
330
23C
100
AcDbEntity
  8
0
100
AcDbCircle
 10
211.6702073656089
 20
296.1251888386233
 30
0.0
 40
29.4999977875
100
AcDbArc
 50
89.61206735830007
 51
88.2720460202001
  0
MTEXT
  5
6FF0
330
23C
100
AcDbEntity
  8
ALL_DETAIL_ITEM
  6
Continuous
 62
     2
100
AcDbMText
 10
267.5761906751524
 20
185.5561435465288
 30
0.0
 40
15.0
 41
0.0
 71
     3
 72
     1
  1
BKF 400-450 M 1:5
 73
     1
 44
1.0
1001
ACAD
1000
ACAD_MTEXT_DEFINED_HEIGHT_BEGIN
1070
    46
1040
15.0
1000
ACAD_MTEXT_DEFINED_HEIGHT_END
  0
LINE
  5
7000
330
23C
100
AcDbEntity
  8
0
 62
     2
100
AcDbLine
 10
278.0581293589412
 20
327.9311248417552
 30
0.0
 11
320.0220711525521
 21
327.9311248417552
 31
0.0
  0
LINE
  5
7001
330
23C
100
AcDbEntity
  8
0
 62
     2
100
AcDbLine
 10
320.0220711525521
 20
327.9311248417552
 30
0.0
 11
301.1849239474202
 21
333.8247273336578
 31
0.0
  0
LINE
  5
7002
330
23C
100
AcDbEntity
  8
0
 62
     2
100
AcDbLine
 10
301.1849239474202
 20
333.8247273336578
 30
0.0
 11
301.1849239474202
 21
327.9311248417552
 31
0.0
  0
LINE
  5
7003
330
23C
100
AcDbEntity
  8
0
 62
     2
100
AcDbLine
 10
320.0220711525521
 20
327.9311248417552
 30
0.0
 11
301.1849239474202
 21
322.0375223498525
 31
0.0
  0
LINE
  5
7004
330
23C
100
AcDbEntity
  8
0
 62
     2
100
AcDbLine
 10
301.1849239474202
 20
322.0375223498525
 30
0.0
 11
301.1849239474202
 21
327.9311248417552
 31
0.0
  0
LINE
  5
7005
330
23C
100
AcDbEntity
  8
0
 62
     2
100
AcDbLine
 10
103.8816055537312
 20
290.0470107225232
 30
0.0
 11
145.8455473473421
 21
290.0470107225232
 31
0.0
  0
LINE
  5
7006
330
23C
100
AcDbEntity
  8
0
 62
     2
100
AcDbLine
 10
145.8455473473421
 20
290.0470107225232
 30
0.0
 11
127.00840014221
 21
295.9406132144258
 31
0.0
  0
LINE
  5
7007
330
23C
100
AcDbEntity
  8
0
 62
     2
100
AcDbLine
 10
127.00840014221
 20
295.9406132144258
 30
0.0
 11
127.00840014221
 21
290.0470107225232
 31
0.0
  0
LINE
  5
7008
330
23C
100
AcDbEntity
  8
0
 62
     2
100
AcDbLine
 10
145.8455473473421
 20
290.0470107225232
 30
0.0
 11
127.00840014221
 21
284.1534082306207
 31
0.0
  0
LINE
  5
7009
330
23C
100
AcDbEntity
  8
0
 62
     2
100
AcDbLine
 10
127.00840014221
 20
284.1534082306207
 30
0.0
 11
127.00840014221
 21
290.0470107225232
 31
0.0
  0
LINE
  5
700B
330
23C
100
AcDbEntity
  8
0
100
AcDbLine
 10
-89.43368013327438
 20
183.3476110480011
 30
0.0
 11
-89.43368013327438
 21
181.7005523480011
 31
0.0
  0
ARC
  5
700C
330
23C
100
AcDbEntity
  8
0
100
AcDbCircle
 10
-88.72779783327441
 20
183.3476110480011
 30
0.0
 40
0.7058823000000001
100
AcDbArc
 50
90.0
 51
180.0
  0
LINE
  5
700D
330
23C
100
AcDbEntity
  8
0
100
AcDbLine
 10
83.97807156672555
 20
184.0534933480011
 30
0.0
 11
-88.72779783327441
 21
184.0534933480011
 31
0.0
  0
LINE
  5
700F
330
23C
100
AcDbEntity
  8
0
100
AcDbLine
 10
84.68395386672549
 20
183.3476110480011
 30
0.0
 11
84.68395386672549
 21
181.7005523480011
 31
0.0
  0
ARC
  5
7010
330
23C
100
AcDbEntity
  8
0
100
AcDbCircle
 10
83.97807156672555
 20
183.3476110480011
 30
0.0
 40
0.7058823000000001
100
AcDbArc
 50
0.0
 51
90.0
  0
LINE
  5
706D
330
23C
100
AcDbEntity
  8
0
100
AcDbLine
 10
-82.37485713327442
 20
256.1251918386233
 30
0.0
 11
-82.37485713327442
 21
250.1251922886233
 31
0.0
  0
LINE
  5
706F
330
23C
100
AcDbEntity
  8
0
100
AcDbLine
 10
-89.43368013327438
 20
28.7593873480011
 30
0.0
 11
-89.43368013327438
 21
30.40644604800107
 31
0.0
  0
ARC
  5
7070
330
23C
100
AcDbEntity
  8
0
100
AcDbCircle
 10
-88.72779783327441
 20
28.7593873480011
 30
0.0
 40
0.7058823000000001
100
AcDbArc
 50
180.0
 51
270.0
  0
LINE
  5
7072
330
23C
100
AcDbEntity
  8
0
100
AcDbLine
 10
84.68395386672549
 20
28.7593873480011
 30
0.0
 11
84.68395386672549
 21
30.40644604800107
 31
0.0
  0
ARC
  5
7073
330
23C
100
AcDbEntity
  8
0
100
AcDbCircle
 10
83.97807156672555
 20
28.7593873480011
 30
0.0
 40
0.7058823000000001
100
AcDbArc
 50
270.0
 51
0.0
  0
LINE
  5
7074
330
23C
100
AcDbEntity
  8
0
100
AcDbLine
 10
-88.72779783327441
 20
28.0535050480011
 30
0.0
 11
83.97807156672555
 21
28.0535050480011
 31
0.0
  0
LINE
  5
7075
330
23C
100
AcDbEntity
  8
02___PRT_ALL_AXES
  6
CENTER
 62
     2
100
AcDbLine
 10
9.625135966725566
 20
80.4910879792127
 30
0.0
 11
9.625135966725566
 21
131.6159104167895
 31
0.0
  0
LINE
  5
7076
330
23C
100
AcDbEntity
  8
02___PRT_ALL_AXES
  6
CENTER
 62
     2
100
AcDbLine
 10
-15.93727525206288
 20
106.0534991980011
 30
0.0
 11
35.18754718551396
 21
106.0534991980011
 31
0.0
  0
LINE
  5
70CA
330
23C
100
AcDbEntity
  8
0
 62
     2
100
AcDbLine
 10
-2.374863133274459
 20
215.5764234929314
 30
0.0
 11
-2.374863133274459
 21
173.6124816993206
 31
0.0
  0
LINE
  5
70CB
330
23C
100
AcDbEntity
  8
0
 62
     2
100
AcDbLine
 10
-2.374863133274459
 20
173.6124816993206
 30
0.0
 11
-8.268465625177157
 21
192.4496289044526
 31
0.0
  0
LINE
  5
70CC
330
23C
100
AcDbEntity
  8
0
 62
     2
100
AcDbLine
 10
-8.268465625177157
 20
192.4496289044526
 30
0.0
 11
-2.374863133274459
 21
192.4496289044526
 31
0.0
  0
LINE
  5
70CD
330
23C
100
AcDbEntity
  8
0
 62
     2
100
AcDbLine
 10
-2.374863133274459
 20
173.6124816993206
 30
0.0
 11
3.518739358628181
 21
192.4496289044526
 31
0.0
  0
LINE
  5
70CE
330
23C
100
AcDbEntity
  8
0
 62
     2
100
AcDbLine
 10
3.518739358628181
 20
192.4496289044526
 30
0.0
 11
-2.374863133274459
 21
192.4496289044526
 31
0.0
  0
LINE
  5
70CF
330
23C
100
AcDbEntity
  8
0
 62
     2
100
AcDbLine
 10
-2.374863133274459
 20
43.22083817454187
 30
0.0
 11
-2.374863133274459
 21
1.256896380931017
 31
0.0
  0
LINE
  5
70D0
330
23C
100
AcDbEntity
  8
0
 62
     2
100
AcDbLine
 10
-2.374863133274459
 20
1.256896380931017
 30
0.0
 11
-8.268465625176987
 21
20.09404358606297
 31
0.0
  0
LINE
  5
70D1
330
23C
100
AcDbEntity
  8
0
 62
     2
100
AcDbLine
 10
-8.268465625176987
 20
20.09404358606297
 30
0.0
 11
-2.374863133274459
 21
20.09404358606297
 31
0.0
  0
LINE
  5
70D2
330
23C
100
AcDbEntity
  8
0
 62
     2
100
AcDbLine
 10
-2.374863133274459
 20
1.256896380931017
 30
0.0
 11
3.518739358628181
 21
20.09404358606297
 31
0.0
  0
LINE
  5
70D3
330
23C
100
AcDbEntity
  8
0
 62
     2
100
AcDbLine
 10
3.518739358628181
 20
20.09404358606297
 30
0.0
 11
-2.374863133274459
 21
20.09404358606297
 31
0.0
  0
LINE
  5
70D5
330
23C
100
AcDbEntity
  8
0
100
AcDbLine
 10
-82.37485713327442
 20
250.1251922886233
 30
0.0
 11
-82.37485713327442
 21
362.1251838886233
 31
0.0
  0
LINE
  5
70D7
330
23C
100
AcDbEntity
  8
0
100
AcDbLine
 10
77.62513086672558
 20
272.0251906461233
 30
0.0
 11
-82.3748571332744
 21
272.0251906461232
 31
0.0
  0
LINE
  5
70E6
330
23C
100
AcDbEntity
  8
0
100
AcDbLine
 10
-5.9748640332744
 20
397.6892168225967
 30
0.0
 11
25.22513596672559
 21
397.6892168225967
 31
0.0
  0
LINE
  5
70E7
330
23C
100
AcDbEntity
  8
0
100
AcDbLine
 10
196.0702085356089
 20
397.6892168225967
 30
0.0
 11
227.2702061956089
 21
397.6892168225967
 31
0.0
  0
LINE
  5
70E8
330
23C
100
AcDbEntity
  8
ALL_ASSEM_MEMBER
  6
Continuous
 62
     7
100
AcDbLine
 10
225.4702063306089
 20
404.5251807086235
 30
0.0
 11
197.8702084006089
 21
404.5251807086235
 31
0.0
  0
ARC
  5
70E9
330
23C
100
AcDbEntity
  8
ALL_ASSEM_MEMBER
  6
Continuous
 62
     7
100
AcDbCircle
 10
197.8702084006089
 20
402.7251808436234
 30
0.0
 40
1.799999865
100
AcDbArc
 50
90.0
 51
180.0
  0
ARC
  5
70EA
330
23C
100
AcDbEntity
  8
ALL_ASSEM_MEMBER
  6
Continuous
 62
     7
100
AcDbCircle
 10
225.4702063306089
 20
402.7251808436234
 30
0.0
 40
1.799999865
100
AcDbArc
 50
0.0
 51
90.0
  0
LINE
  5
70EB
330
23C
100
AcDbEntity
  8
0
100
AcDbLine
 10
196.0702085356089
 20
366.7251835436236
 30
0.0
 11
202.6702080406089
 21
366.7251835436236
 31
0.0
  0
LINE
  5
70EC
330
23C
100
AcDbEntity
  8
0
100
AcDbLine
 10
227.2702061956089
 20
366.7251835436236
 30
0.0
 11
220.6702066906089
 21
366.7251835436236
 31
0.0
  0
LINE
  5
70ED
330
23C
100
AcDbEntity
  8
0
100
AcDbLine
 10
-82.27485714077444
 20
356.1251918386233
 30
0.0
 11
77.62513086672558
 21
356.1251918386233
 31
0.0
  0
LINE
  5
70F1
330
23C
100
AcDbEntity
  8
0
100
AcDbLine
 10
133.6702132156088
 20
356.1251918386233
 30
0.0
 11
289.670201515609
 21
356.1251918386233
 31
0.0
  0
LINE
  5
70F2
330
23C
100
AcDbEntity
  8
ALL_ASSEM_MEMBER
  6
Continuous
 62
     7
100
AcDbLine
 10
135.6702132156088
 20
362.1251918386233
 30
0.0
 11
134.2702132156088
 21
362.1251918386233
 31
0.0
  0
ARC
  5
70F3
330
23C
100
AcDbEntity
  8
ALL_ASSEM_MEMBER
  6
Continuous
 62
     7
100
AcDbCircle
 10
134.2702132156088
 20
361.5251918386233
 30
0.0
 40
0.6
100
AcDbArc
 50
90.0
 51
180.0
  0
LINE
  5
70F4
330
23C
100
AcDbEntity
  8
0
100
AcDbLine
 10
289.6702015156092
 20
361.5251918386233
 30
0.0
 11
289.6702015156092
 21
250.7251843386234
 31
0.0
  0
LINE
  5
70F5
330
23C
100
AcDbEntity
  8
ALL_ASSEM_MEMBER
  6
Continuous
 62
     7
100
AcDbLine
 10
287.6702015156089
 20
362.1251918386233
 30
0.0
 11
289.0702015156092
 21
362.1251918386233
 31
0.0
  0
ARC
  5
70F6
330
23C
100
AcDbEntity
  8
ALL_ASSEM_MEMBER
  6
Continuous
 62
     7
100
AcDbCircle
 10
289.0702015156092
 20
361.5251918386233
 30
0.0
 40
0.6
100
AcDbArc
 50
0.0
 51
90.0
  0
LINE
  5
7119
330
23C
100
AcDbEntity
  8
ALL_ASSEM_MEMBER
  6
Continuous
 62
     7
100
AcDbLine
 10
135.6702132156088
 20
250.1251843386234
 30
0.0
 11
134.2702132156088
 21
250.1251843386234
 31
0.0
  0
ARC
  5
711A
330
23C
100
AcDbEntity
  8
ALL_ASSEM_MEMBER
  6
Continuous
 62
     7
100
AcDbCircle
 10
134.2702132156088
 20
250.7251843386234
 30
0.0
 40
0.6
100
AcDbArc
 50
180.0
 51
270.0
  0
LINE
  5
711C
330
23C
100
AcDbEntity
  8
0
100
AcDbLine
 10
133.6702132156088
 20
256.1251918386233
 30
0.0
 11
289.6702015156092
 21
256.1251918386233
 31
0.0
  0
LINE
  5
711D
330
23C
100
AcDbEntity
  8
ALL_ASSEM_MEMBER
  6
Continuous
 62
     7
100
AcDbLine
 10
287.6702015156089
 20
250.1251843386234
 30
0.0
 11
289.0702015156092
 21
250.1251843386234
 31
0.0
  0
ARC
  5
711E
330
23C
100
AcDbEntity
  8
ALL_ASSEM_MEMBER
  6
Continuous
 62
     7
100
AcDbCircle
 10
289.0702015156092
 20
250.7251843386234
 30
0.0
 40
0.6
100
AcDbArc
 50
270.0
 51
0.0
  0
LINE
  5
711F
330
23C
100
AcDbEntity
  8
0
100
AcDbLine
 10
258.8702038256089
 20
356.1251918386234
 30
0.0
 11
258.8702038256089
 21
366.1251835886235
 31
0.0
  0
LINE
  5
7120
330
23C
100
AcDbEntity
  8
0
100
AcDbLine
 10
164.4702109056089
 20
356.1251918386234
 30
0.0
 11
164.4702109056089
 21
366.1251835886235
 31
0.0
  0
LINE
  5
7121
330
23C
100
AcDbEntity
  8
02___PRT_ALL_AXES
  6
CENTER
 62
     2
100
AcDbLine
 10
211.6702073656089
 20
359.001678051472
 30
0.0
 11
211.6702073656089
 21
406.5251807086234
 31
0.0
  0
LINE
  5
7123
330
23C
100
AcDbEntity
  8
02___PRT_ALL_AXES
  6
CENTER
 62
     2
100
AcDbLine
 10
9.625135966725566
 20
359.001678051472
 30
0.0
 11
9.625135966725566
 21
406.5251807086234
 31
0.0
  0
LINE
  5
7124
330
23C
100
AcDbEntity
  8
0
 62
     2
100
AcDbLine
 10
-2.118541129704908
 20
332.8161336905041
 30
0.0
 11
-39.3916546071593
 21
313.5369370642346
 31
0.0
  0
LINE
  5
7125
330
23C
100
AcDbEntity
  8
0
 62
     2
100
AcDbLine
 10
-39.3916546071593
 20
313.5369370642346
 30
0.0
 11
-25.3678241723469
 21
327.4259559315269
 31
0.0
  0
LINE
  5
7126
330
23C
100
AcDbEntity
  8
0
 62
     2
100
AcDbLine
 10
-25.3678241723469
 20
327.4259559315269
 30
0.0
 11
-22.66016811283532
 21
322.1911542164712
 31
0.0
  0
LINE
  5
7127
330
23C
100
AcDbEntity
  8
0
 62
     2
100
AcDbLine
 10
-39.3916546071593
 20
313.5369370642346
 30
0.0
 11
-19.95251205332374
 21
316.9563525014154
 31
0.0
  0
LINE
  5
7128
330
23C
100
AcDbEntity
  8
0
 62
     2
100
AcDbLine
 10
-19.95251205332374
 20
316.9563525014154
 30
0.0
 11
-22.66016811283532
 21
322.1911542164712
 31
0.0
  0
LINE
  5
712F
330
23C
100
AcDbEntity
  8
ALL_ASSEM_MEMBER
  6
HIDDEN
 62
     8
100
AcDbLine
 10
263.4953857502175
 20
301.1251880886234
 30
0.0
 11
289.6702015156091
 21
272.0251906461233
 31
0.0
  0
LINE
  5
7133
330
23C
100
AcDbEntity
  8
ALL_ASSEM_MEMBER
  6
HIDDEN
 62
     8
100
AcDbLine
 10
159.8450346544596
 20
311.1251880886234
 30
0.0
 11
133.6702132156087
 21
340.2251918386235
 31
0.0
  0
LINE
  5
7137
330
23C
100
AcDbEntity
  8
02___PRT_ALL_AXES
  6
CENTER
 62
     2
100
AcDbLine
 10
127.2719131809663
 20
343.1251853136235
 30
0.0
 11
140.0685132502512
 21
343.1251853136235
 31
0.0
  0
LINE
  5
7139
330
23C
100
AcDbEntity
  8
02___PRT_ALL_AXES
  6
CENTER
 62
     2
100
AcDbLine
 10
283.2719014809667
 20
269.1251908636233
 30
0.0
 11
296.0685015502516
 21
269.1251908636233
 31
0.0
  0
CIRCLE
  5
71BD
330
23C
100
AcDbEntity
  8
ALL_ASSEM_MEMBER
  6
HIDDEN
 62
     8
100
AcDbCircle
 10
80.62513086642545
 20
343.1251853136235
 30
0.0
 40
0.9499999999050002
  0
CIRCLE
  5
71BF
330
23C
100
AcDbEntity
  8
ALL_ASSEM_MEMBER
  6
HIDDEN
 62
     8
100
AcDbCircle
 10
-85.2748571404743
 20
343.1251853136235
 30
0.0
 40
0.9499999999050002
  0
ENDSEC
  0
SECTION
  2
OBJECTS
  0
DICTIONARY
  5
C
330
0
100
AcDbDictionary
281
     1
  3
ACAD_CIP_PREVIOUS_PRODUCT_INFO
350
6DEB
  3
ACAD_DETAILVIEWSTYLE
350
6DE7
  3
ACAD_GROUP
350
D
  3
ACAD_IMAGE_VARS
350
6ED4
  3
ACAD_LAYOUT
350
1A
  3
ACAD_MLINESTYLE
350
17
  3
ACAD_PLOTSETTINGS
350
19
  3
ACAD_PLOTSTYLENAME
350
E
  3
ACAD_SCALELIST
350
6DD1
  3
ACAD_SECTIONVIEWSTYLE
350
6DE5
  3
AcDbVariableDictionary
350
6E80
  3
APPDATA
350
6ED2
  3
DWGPROPS
350
71E3
  0
DICTIONARY
  5
70FA
330
2
100
AcDbDictionary
280
     1
281
     1
  3
ACAD_LAYERSTATES
360
70FB
  0
DICTIONARY
  5
6E02
330
10
100
AcDbDictionary
280
     1
281
     1
  3
ADSK_XREC_LAYER_RECONCILED
360
6E03
  0
DICTIONARY
  5
6E18
330
204
100
AcDbDictionary
280
     1
281
     1
  3
ADSK_XREC_LAYER_RECONCILED
360
6E19
  0
DICTIONARY
  5
6E44
330
21A
100
AcDbDictionary
280
     1
281
     1
  3
ADSK_XREC_LAYER_RECONCILED
360
6E45
  0
DICTIONARY
  5
6E52
330
221
100
AcDbDictionary
280
     1
281
     1
  3
ADSK_XREC_LAYER_RECONCILED
360
6E53
  0
DICTIONARY
  5
70EE
330
23C
100
AcDbDictionary
280
     1
281
     1
  3
ACAD_SORTENTS
360
70EF
  0
XRECORD
  5
6DEB
102
{ACAD_REACTORS
330
C
102
}
330
C
100
AcDbXrecord
280
     1
300
ACD
300
2015
300
ACD_F_S
  0
DICTIONARY
  5
6DE7
102
{ACAD_REACTORS
330
C
102
}
330
C
100
AcDbDictionary
281
     1
  3
Metric50
350
6DE8
  0
DICTIONARY
  5
D
102
{ACAD_REACTORS
330
C
102
}
330
C
100
AcDbDictionary
281
     1
  0
RASTERVARIABLES
  5
6ED4
102
{ACAD_REACTORS
330
C
102
}
330
C
100
AcDbRasterVariables
 90
        0
 70
     1
 71
     1
 72
     1
  0
DICTIONARY
  5
1A
102
{ACAD_REACTORS
330
C
102
}
330
C
100
AcDbDictionary
281
     1
  3
Layout1
350
6D98
  3
Model
350
6D97
  0
DICTIONARY
  5
17
102
{ACAD_REACTORS
330
C
102
}
330
C
100
AcDbDictionary
281
     1
  3
Standard
350
18
  0
DICTIONARY
  5
19
102
{ACAD_REACTORS
330
C
102
}
330
C
100
AcDbDictionary
281
     1
  0
ACDBDICTIONARYWDFLT
  5
E
102
{ACAD_REACTORS
330
C
102
}
330
C
100
AcDbDictionary
281
     1
  3
Normal
350
F
100
AcDbDictionaryWithDefault
340
F
  0
DICTIONARY
  5
6DD1
102
{ACAD_REACTORS
330
C
102
}
330
C
100
AcDbDictionary
281
     1
  3
A0
350
6DD2
  3
A1
350
6DD3
  3
A2
350
6DD4
  3
A3
350
6DD5
  3
A4
350
6DD6
  3
A5
350
6DD7
  3
A6
350
6DD8
  3
A7
350
6DD9
  3
A8
350
6DDA
  3
A9
350
6DDB
  3
B0
350
6DDC
  3
B1
350
6DDD
  3
B2
350
6DDE
  3
B3
350
6DDF
  3
B4
350
6DE0
  3
B5
350
6DE1
  3
B6
350
6DE2
  0
DICTIONARY
  5
6DE5
102
{ACAD_REACTORS
330
C
102
}
330
C
100
AcDbDictionary
281
     1
  3
Metric50
350
6DE6
  0
DICTIONARY
  5
6E80
102
{ACAD_REACTORS
330
C
102
}
330
C
100
AcDbDictionary
281
     1
  3
DIMASSOC
350
6E91
  3
INDEXCTL
350
6E90
  3
SORTENTS
350
6E8F
  0
DICTIONARY
  5
6ED2
102
{ACAD_REACTORS
330
C
102
}
330
C
100
AcDbDictionary
281
     1
  0
XRECORD
  5
71E3
102
{ACAD_REACTORS
330
C
102
}
330
C
100
AcDbXrecord
280
     1
  1
DWGPROPS COOKIE
  2

  3

  4

  6

  7

  8
d610igzo
  9

300
=
301
=
302
=
303
=
304
=
305
=
306
=
307
=
308
=
309
=
 40
0.0
 41
2457664.279237836
 42
2457837.526987535
  1

 90
        0
  0
DICTIONARY
  5
70FB
102
{ACAD_REACTORS
330
70FA
102
}
330
70FA
100
AcDbDictionary
281
     1
  0
XRECORD
  5
6E03
102
{ACAD_REACTORS
330
6E02
102
}
330
6E02
100
AcDbXrecord
280
     1
290
     1
  0
XRECORD
  5
6E19
102
{ACAD_REACTORS
330
6E18
102
}
330
6E18
100
AcDbXrecord
280
     1
290
     1
  0
XRECORD
  5
6E45
102
{ACAD_REACTORS
330
6E44
102
}
330
6E44
100
AcDbXrecord
280
     1
290
     1
  0
XRECORD
  5
6E53
102
{ACAD_REACTORS
330
6E52
102
}
330
6E52
100
AcDbXrecord
280
     1
290
     1
  0
SORTENTSTABLE
  5
70EF
102
{ACAD_REACTORS
330
70EE
102
}
330
70EE
100
AcDbSortentsTable
330
23C
331
0
  5
59A
331
0
  5
5A1
331
0
  5
5A2
331
0
  5
5A6
331
0
  5
5AA
331
0
  5
5AC
331
4BAD
  5
4BAD
331
4BB2
  5
4BB2
331
4BB3
  5
4BB3
331
4BE7
  5
4BE7
331
4BE9
  5
4BE9
331
4BFB
  5
4BFB
331
4C17
  5
4C18
331
4C18
  5
4C19
331
4C19
  5
4C1A
331
4C1A
  5
4C26
331
4C59
  5
4C5A
331
4C5A
  5
4C91
331
4C91
  5
4C95
331
4C95
  5
4C9B
331
4C9B
  5
4C9C
331
4C9C
  5
4CA9
331
4CAF
  5
4CE9
331
4CE9
  5
4CEA
331
4CEA
  5
4D39
331
4D39
  5
4D7B
331
4D95
  5
4D96
331
4D96
  5
4DB5
331
4DB5
  5
4DBC
331
4DBC
  5
4E0A
331
4E0A
  5
4E1F
331
4E32
  5
4E38
331
4E5F
  5
4E61
331
4E61
  5
4E62
331
4E62
  5
4E64
331
4E6B
  5
4E6C
331
4E6C
  5
4EF8
331
4EF8
  5
51FB
331
51FB
  5
53CC
331
53CC
  5
5447
331
5447
  5
54D6
331
54D6
  5
551D
331
551D
  5
56C5
331
56C5
  5
58F4
331
58F4
  5
5981
331
5981
  5
5C71
331
5C71
  5
5D13
331
5D19
  5
5D1A
331
5F8E
  5
5FD5
331
5FE3
  5
6031
331
6031
  5
6154
331
6154
  5
61AE
331
61AE
  5
61C9
331
61C9
  5
61CA
331
61CA
  5
61D3
331
642C
  5
64C5
331
64C5
  5
64C7
331
654E
  5
65B8
331
69AF
  5
69B0
331
69B0
  5
69B1
331
69B1
  5
69B6
331
69B6
  5
69B7
331
69B7
  5
69BB
331
69BB
  5
69C1
331
69C1
  5
69C2
331
69C2
  5
69C8
331
69C8
  5
69C9
331
69C9
  5
69CA
331
69CA
  5
69D1
331
69D1
  5
69D2
331
69D2
  5
69D9
331
69D9
  5
69E1
331
69E1
  5
69E2
331
69E2
  5
6B7D
331
6B7D
  5
6B7E
331
6B7E
  5
6B7F
331
6B7F
  5
6C44
331
6CE5
  5
6D09
331
6FF0
  5
6FF1
331
7000
  5
7001
331
7001
  5
7002
331
7002
  5
7003
331
7003
  5
7004
331
7004
  5
7005
331
7005
  5
7006
331
7006
  5
7007
331
7007
  5
7008
331
7008
  5
7009
331
7009
  5
700B
331
700B
  5
700C
331
700C
  5
700D
331
700D
  5
700F
331
700F
  5
7010
331
7010
  5
706D
331
706D
  5
706F
331
706F
  5
7070
331
7070
  5
7072
331
7072
  5
7073
331
7073
  5
7074
331
7074
  5
7075
331
7075
  5
7076
331
7076
  5
70CA
331
70CA
  5
70CB
331
70CB
  5
70CC
331
70CC
  5
70CD
331
70CD
  5
70CE
331
70CE
  5
70CF
331
70CF
  5
70D0
331
70D0
  5
70D1
331
70D1
  5
70D2
331
70D2
  5
70D3
331
70D3
  5
70D5
331
70D5
  5
70D7
331
70D7
  5
70E6
331
70E6
  5
70E7
331
70E7
  5
70E8
331
70E8
  5
70E9
331
70E9
  5
70EA
331
70EA
  5
70EB
331
70EB
  5
70EC
331
70EC
  5
70ED
331
70ED
  5
4C0C
331
70F1
  5
70F1
331
70F2
  5
70F2
331
70F3
  5
70F3
331
70F4
  5
70F4
331
70F5
  5
70F5
331
70F6
  5
70F6
331
7119
  5
7119
331
711A
  5
711A
331
711C
  5
711C
331
711D
  5
711E
331
711E
  5
711F
331
711F
  5
7120
331
7120
  5
7121
331
7121
  5
7123
331
7123
  5
7124
331
7124
  5
7125
331
7125
  5
7126
331
7126
  5
7127
331
7127
  5
7128
331
7128
  5
712F
331
712F
  5
7131
331
7133
  5
7133
331
7137
  5
7137
331
7139
  5
7139
  0
ACDBDETAILVIEWSTYLE
  5
6DE8
102
{ACAD_REACTORS
330
6DE7
102
}
102
{ACAD_XDICTIONARY
360
7102
102
}
330
6DE7
100
AcDbModelDocViewStyle
 70
     0
  3
Metric50
290
     0
100
AcDbDetailViewStyle
 70
     0
 71
     0
 90
        3
 71
     1
340
11
 40
5.0
340
0
 40
5.0
300

 40
0.0
280
     1
 71
     2
340
16
 90
       25
 71
     3
340
11
 40
5.0
 90
        0
 40
15.0
 90
        1
300
%<\AcVar ViewDetailId>% (%<\AcVar ViewScale \f "%sn">%)
 71
     4
340
16
 90
       25
340
16
 90
       25
280
     0
  0
LAYOUT
  5
6D98
102
{ACAD_REACTORS
330
1A
102
}
330
1A
100
AcDbPlotSettings
  1

  2
none_device
  4
ISO_A2_(594.00_x_420.00_MM)
  6

 40
0.0
 41
0.0
 42
0.0
 43
0.0
 44
594.0
 45
420.0
 46
0.0
 47
0.0
 48
0.0
 49
0.0
140
0.0
141
0.0
142
1.0
143
1.0
 70
     0
 72
     1
 73
     0
 74
     0
  7

 75
     0
147
1.0
148
0.0
149
0.0
100
AcDbLayout
  1
Layout1
 70
     1
 71
     1
 10
0.0
 20
0.0
 11
594.0
 21
420.0
 12
0.0
 22
0.0
 32
0.0
 14
1.000000000000000E+20
 24
1.000000000000000E+20
 34
1.000000000000000E+20
 15
-1.000000000000000E+20
 25
-1.000000000000000E+20
 35
-1.000000000000000E+20
146
0.0
 13
0.0
 23
0.0
 33
0.0
 16
1.0
 26
0.0
 36
0.0
 17
0.0
 27
1.0
 37
0.0
 76
     0
330
23D
  0
LAYOUT
  5
6D97
102
{ACAD_REACTORS
330
1A
102
}
330
1A
100
AcDbPlotSettings
  1

  2
none_device
  4
ISO_A2_(594.00_x_420.00_MM)
  6

 40
0.0
 41
0.0
 42
0.0
 43
0.0
 44
594.0
 45
420.0
 46
0.0
 47
0.0
 48
0.0
 49
0.0
140
0.0
141
0.0
142
1.0
143
1.0
 70
  1024
 72
     1
 73
     0
 74
     0
  7

 75
     0
147
1.0
148
0.0
149
0.0
100
AcDbLayout
  1
Model
 70
     0
 71
     0
 10
-106.9473595969862
 20
1.601185636598757
 11
328.2325489389659
 21
428.4478618814369
 12
0.0
 22
0.0
 32
0.0
 14
-89.43368013327444
 24
1.256896380931011
 34
0.0
 15
320.0220711525521
 25
406.5251807086234
 35
0.0
146
0.0
 13
0.0
 23
0.0
 33
0.0
 16
1.0
 26
0.0
 36
0.0
 17
0.0
 27
1.0
 37
0.0
 76
     0
330
23C
331
1F4
  0
MLINESTYLE
  5
18
102
{ACAD_REACTORS
330
17
102
}
330
17
100
AcDbMlineStyle
  2
STANDARD
 70
     0
  3

 62
   256
 51
90.0
 52
90.0
 71
     2
 49
0.5
 62
   256
  6
BYLAYER
 49
-0.5
 62
   256
  6
BYLAYER
  0
ACDBPLACEHOLDER
  5
F
102
{ACAD_REACTORS
330
E
102
}
330
E
  0
SCALE
  5
6DD2
102
{ACAD_REACTORS
330
6DD1
102
}
330
6DD1
100
AcDbScale
 70
     0
300
1:1
140
1.0
141
1.0
290
     1
  0
SCALE
  5
6DD3
102
{ACAD_REACTORS
330
6DD1
102
}
330
6DD1
100
AcDbScale
 70
     0
300
1:2
140
1.0
141
2.0
290
     0
  0
SCALE
  5
6DD4
102
{ACAD_REACTORS
330
6DD1
102
}
330
6DD1
100
AcDbScale
 70
     0
300
1:4
140
1.0
141
4.0
290
     0
  0
SCALE
  5
6DD5
102
{ACAD_REACTORS
330
6DD1
102
}
330
6DD1
100
AcDbScale
 70
     0
300
1:5
140
1.0
141
5.0
290
     0
  0
SCALE
  5
6DD6
102
{ACAD_REACTORS
330
6DD1
102
}
330
6DD1
100
AcDbScale
 70
     0
300
1:8
140
1.0
141
8.0
290
     0
  0
SCALE
  5
6DD7
102
{ACAD_REACTORS
330
6DD1
102
}
330
6DD1
100
AcDbScale
 70
     0
300
1:10
140
1.0
141
10.0
290
     0
  0
SCALE
  5
6DD8
102
{ACAD_REACTORS
330
6DD1
102
}
330
6DD1
100
AcDbScale
 70
     0
300
1:16
140
1.0
141
16.0
290
     0
  0
SCALE
  5
6DD9
102
{ACAD_REACTORS
330
6DD1
102
}
330
6DD1
100
AcDbScale
 70
     0
300
1:20
140
1.0
141
20.0
290
     0
  0
SCALE
  5
6DDA
102
{ACAD_REACTORS
330
6DD1
102
}
330
6DD1
100
AcDbScale
 70
     0
300
1:30
140
1.0
141
30.0
290
     0
  0
SCALE
  5
6DDB
102
{ACAD_REACTORS
330
6DD1
102
}
330
6DD1
100
AcDbScale
 70
     0
300
1:40
140
1.0
141
40.0
290
     0
  0
SCALE
  5
6DDC
102
{ACAD_REACTORS
330
6DD1
102
}
330
6DD1
100
AcDbScale
 70
     0
300
1:50
140
1.0
141
50.0
290
     0
  0
SCALE
  5
6DDD
102
{ACAD_REACTORS
330
6DD1
102
}
330
6DD1
100
AcDbScale
 70
     0
300
1:100
140
1.0
141
100.0
290
     0
  0
SCALE
  5
6DDE
102
{ACAD_REACTORS
330
6DD1
102
}
330
6DD1
100
AcDbScale
 70
     0
300
2:1
140
2.0
141
1.0
290
     0
  0
SCALE
  5
6DDF
102
{ACAD_REACTORS
330
6DD1
102
}
330
6DD1
100
AcDbScale
 70
     0
300
4:1
140
4.0
141
1.0
290
     0
  0
SCALE
  5
6DE0
102
{ACAD_REACTORS
330
6DD1
102
}
330
6DD1
100
AcDbScale
 70
     0
300
8:1
140
8.0
141
1.0
290
     0
  0
SCALE
  5
6DE1
102
{ACAD_REACTORS
330
6DD1
102
}
330
6DD1
100
AcDbScale
 70
     0
300
10:1
140
10.0
141
1.0
290
     0
  0
SCALE
  5
6DE2
102
{ACAD_REACTORS
330
6DD1
102
}
330
6DD1
100
AcDbScale
 70
     0
300
100:1
140
100.0
141
1.0
290
     0
  0
ACDBSECTIONVIEWSTYLE
  5
6DE6
102
{ACAD_REACTORS
330
6DE5
102
}
102
{ACAD_XDICTIONARY
360
7100
102
}
330
6DE5
100
AcDbModelDocViewStyle
 70
     0
  3
Metric50
290
     0
100
AcDbSectionViewStyle
 70
     0
 71
     0
 90
      102
 71
     1
340
11
 40
5.0
340
0
340
0
 40
5.0
300
I, O, Q, S, X, Z
 40
10.0
 90
        0
 40
2.5
 90
        0
 71
     2
340
16
 90
       25
340
16
 90
       50
 40
5.0
 40
2.5
 40
5.0
 71
     3
340
11
 40
5.0
 90
        0
 40
15.0
 90
        1
300
%<\AcVar ViewSectionStartId>%-%<\AcVar ViewSectionEndId>% (%<\AcVar ViewScale \f "%sn">%)
 71
     4
300
ANSI31
 40
1.0
 90
        0
290
     0
290
     0
 90
        6
 40
0.0
 40
1.570796326794896
 40
0.2617993877991494
 40
1.308996938995747
 40
-0.2617993877991494
 40
1.832595714594045
  0
DICTIONARYVAR
  5
6E91
102
{ACAD_REACTORS
330
6E80
102
}
330
6E80
100
DictionaryVariables
280
     0
  1
1
  0
DICTIONARYVAR
  5
6E90
102
{ACAD_REACTORS
330
6E80
102
}
330
6E80
100
DictionaryVariables
280
     0
  1
0
  0
DICTIONARYVAR
  5
6E8F
102
{ACAD_REACTORS
330
6E80
102
}
330
6E80
100
DictionaryVariables
280
     0
  1
127
  0
DICTIONARY
  5
7102
330
6DE8
100
AcDbDictionary
280
     1
281
     1
  3
ACAD_XREC_ROUNDTRIP
360
71E4
  0
DICTIONARY
  5
7100
330
6DE6
100
AcDbDictionary
280
     1
281
     1
  3
ACAD_XREC_ROUNDTRIP
360
71E5
  0
XRECORD
  5
71E4
102
{ACAD_REACTORS
330
7102
102
}
330
7102
100
AcDbXrecord
280
     1
102
DISPLAYNAME
  1
Metric50
102
FLAGS
 90
        0
  0
XRECORD
  5
71E5
102
{ACAD_REACTORS
330
7100
102
}
330
7100
100
AcDbXrecord
280
     1
102
DISPLAYNAME
  1
Metric50
102
FLAGS
 90
        0
  0
ENDSEC
  0
EOF
