  0
SECTION
  2
HEADER
  9
$ACADVER
  1
AC1015
  9
$ACADMAINTVER
 70
     6
  9
$DWGCODEPAGE
  3
ANSI_1252
  9
$INSBASE
 10
0.0
 20
0.0
 30
0.0
  9
$EXTMIN
 10
40.8583485517
 20
37.91383589362994
 30
0.0
  9
$EXTMAX
 10
389.6663428896309
 20
396.1754368485007
 30
0.0
  9
$LIMMIN
 10
9.539458611267605
 20
23.45571688990907
  9
$LIMMAX
 10
404.4084942386463
 20
413.2249679243142
  9
$ORTHOMODE
 70
     1
  9
$REGENMODE
 70
     1
  9
$FILLMODE
 70
     1
  9
$QTEXTMODE
 70
     0
  9
$MIRRTEXT
 70
     1
  9
$LTSCALE
 40
32.67
  9
$ATTMODE
 70
     1
  9
$TEXTSIZE
 40
0.2
  9
$TRACEWID
 40
0.05
  9
$TEXTSTYLE
  7
STANDARD
  9
$CLAYER
  8
0
  9
$CELTYPE
  6
BYLAYER
  9
$CECOLOR
 62
   256
  9
$CELTSCALE
 40
1.0
  9
$DISPSILH
 70
     0
  9
$DIMSCALE
 40
1.0
  9
$DIMASZ
 40
3.5
  9
$DIMEXO
 40
0.0
  9
$DIMDLI
 40
22.572
  9
$DIMRND
 40
0.0
  9
$DIMDLE
 40
0.0
  9
$DIMEXE
 40
1.0
  9
$DIMTP
 40
0.01
  9
$DIMTM
 40
0.01
  9
$DIMTXT
 40
2.5
  9
$DIMCEN
 40
5.346
  9
$DIMTSZ
 40
0.0
  9
$DIMTOL
 70
     1
  9
$DIMLIM
 70
     0
  9
$DIMTIH
 70
     1
  9
$DIMTOH
 70
     1
  9
$DIMSE1
 70
     0
  9
$DIMSE2
 70
     0
  9
$DIMTAD
 70
     0
  9
$DIMZIN
 70
     0
  9
$DIMBLK
  1
FILLED
  9
$DIMASO
 70
     1
  9
$DIMSHO
 70
     1
  9
$DIMPOST
  1

  9
$DIMAPOST
  1

  9
$DIMALT
 70
     0
  9
$DIMALTD
 70
     2
  9
$DIMALTF
 40
25.4
  9
$DIMLFAC
 40
1.0
  9
$DIMTOFL
 70
     0
  9
$DIMTVP
 40
0.0
  9
$DIMTIX
 70
     0
  9
$DIMSOXD
 70
     0
  9
$DIMSAH
 70
     0
  9
$DIMBLK1
  1

  9
$DIMBLK2
  1

  9
$DIMSTYLE
  2
STANDARD
  9
$DIMCLRD
 70
     0
  9
$DIMCLRE
 70
     0
  9
$DIMCLRT
 70
     0
  9
$DIMTFAC
 40
1.0
  9
$DIMGAP
 40
0.625
  9
$DIMJUST
 70
     0
  9
$DIMSD1
 70
     0
  9
$DIMSD2
 70
     0
  9
$DIMTOLJ
 70
     1
  9
$DIMTZIN
 70
     0
  9
$DIMALTZ
 70
     0
  9
$DIMALTTZ
 70
     0
  9
$DIMUPT
 70
     0
  9
$DIMDEC
 70
     4
  9
$DIMTDEC
 70
     4
  9
$DIMALTU
 70
     2
  9
$DIMALTTD
 70
     2
  9
$DIMTXSTY
  7
STANDARD
  9
$DIMAUNIT
 70
     0
  9
$DIMADEC
 70
     0
  9
$DIMALTRND
 40
0.0
  9
$DIMAZIN
 70
     0
  9
$DIMDSEP
 70
    44
  9
$DIMATFIT
 70
     3
  9
$DIMFRAC
 70
     0
  9
$DIMLDRBLK
  1

  9
$DIMLUNIT
 70
     2
  9
$DIMLWD
 70
    -2
  9
$DIMLWE
 70
    -2
  9
$DIMTMOVE
 70
     0
  9
$LUNITS
 70
     2
  9
$LUPREC
 70
     4
  9
$SKETCHINC
 40
0.1
  9
$FILLETRAD
 40
0.5
  9
$AUNITS
 70
     0
  9
$AUPREC
 70
     0
  9
$MENU
  1
.
  9
$ELEVATION
 40
0.0
  9
$PELEVATION
 40
0.0
  9
$THICKNESS
 40
0.0
  9
$LIMCHECK
 70
     0
  9
$CHAMFERA
 40
0.0
  9
$CHAMFERB
 40
0.0
  9
$CHAMFERC
 40
0.0
  9
$CHAMFERD
 40
0.0
  9
$SKPOLY
 70
     0
  9
$TDCREATE
 40
2447893.041666667
  9
$TDUCREATE
 40
0.0
  9
$TDUPDATE
 40
2457837.520731065
  9
$TDUUPDATE
 40
2457837.479064398
  9
$TDINDWG
 40
0.0448439005
  9
$TDUSRTIMER
 40
2457837.477543171
  9
$USRTIMER
 70
     1
  9
$ANGBASE
 50
0.0
  9
$ANGDIR
 70
     0
  9
$PDMODE
 70
     3
  9
$PDSIZE
 40
6.0
  9
$PLINEWID
 40
0.0
  9
$SPLFRAME
 70
     0
  9
$SPLINETYPE
 70
     6
  9
$SPLINESEGS
 70
     8
  9
$HANDSEED
  5
7263
  9
$SURFTAB1
 70
     6
  9
$SURFTAB2
 70
     6
  9
$SURFTYPE
 70
     6
  9
$SURFU
 70
     6
  9
$SURFV
 70
     6
  9
$UCSBASE
  2

  9
$UCSNAME
  2

  9
$UCSORG
 10
0.0
 20
0.0
 30
0.0
  9
$UCSXDIR
 10
1.0
 20
0.0
 30
0.0
  9
$UCSYDIR
 10
0.0
 20
1.0
 30
0.0
  9
$UCSORTHOREF
  2

  9
$UCSORTHOVIEW
 70
     0
  9
$UCSORGTOP
 10
0.0
 20
0.0
 30
0.0
  9
$UCSORGBOTTOM
 10
0.0
 20
0.0
 30
0.0
  9
$UCSORGLEFT
 10
0.0
 20
0.0
 30
0.0
  9
$UCSORGRIGHT
 10
0.0
 20
0.0
 30
0.0
  9
$UCSORGFRONT
 10
0.0
 20
0.0
 30
0.0
  9
$UCSORGBACK
 10
0.0
 20
0.0
 30
0.0
  9
$PUCSBASE
  2

  9
$PUCSNAME
  2

  9
$PUCSORG
 10
0.0
 20
0.0
 30
0.0
  9
$PUCSXDIR
 10
1.0
 20
0.0
 30
0.0
  9
$PUCSYDIR
 10
0.0
 20
1.0
 30
0.0
  9
$PUCSORTHOREF
  2

  9
$PUCSORTHOVIEW
 70
     0
  9
$PUCSORGTOP
 10
0.0
 20
0.0
 30
0.0
  9
$PUCSORGBOTTOM
 10
0.0
 20
0.0
 30
0.0
  9
$PUCSORGLEFT
 10
0.0
 20
0.0
 30
0.0
  9
$PUCSORGRIGHT
 10
0.0
 20
0.0
 30
0.0
  9
$PUCSORGFRONT
 10
0.0
 20
0.0
 30
0.0
  9
$PUCSORGBACK
 10
0.0
 20
0.0
 30
0.0
  9
$USERI1
 70
     0
  9
$USERI2
 70
     0
  9
$USERI3
 70
     0
  9
$USERI4
 70
     0
  9
$USERI5
 70
     0
  9
$USERR1
 40
0.0
  9
$USERR2
 40
0.0
  9
$USERR3
 40
0.0
  9
$USERR4
 40
0.0
  9
$USERR5
 40
0.0
  9
$WORLDVIEW
 70
     1
  9
$SHADEDGE
 70
     3
  9
$SHADEDIF
 70
    70
  9
$TILEMODE
 70
     1
  9
$MAXACTVP
 70
    64
  9
$PINSBASE
 10
0.0
 20
0.0
 30
0.0
  9
$PLIMCHECK
 70
     0
  9
$PEXTMIN
 10
0.0
 20
0.0
 30
0.0
  9
$PEXTMAX
 10
0.0
 20
0.0
 30
0.0
  9
$PLIMMIN
 10
0.0
 20
0.0
  9
$PLIMMAX
 10
594.0
 20
420.0
  9
$UNITMODE
 70
     0
  9
$VISRETAIN
 70
     1
  9
$PLINEGEN
 70
     0
  9
$PSLTSCALE
 70
     0
  9
$TREEDEPTH
 70
  3020
  9
$CMLSTYLE
  2
Standard
  9
$CMLJUST
 70
     0
  9
$CMLSCALE
 40
1.0
  9
$PROXYGRAPHICS
 70
     1
  9
$MEASUREMENT
 70
     1
  9
$CELWEIGHT
370
    -1
  9
$ENDCAPS
280
     0
  9
$JOINSTYLE
280
     0
  9
$LWDISPLAY
290
     0
  9
$INSUNITS
 70
     4
  9
$HYPERLINKBASE
  1

  9
$STYLESHEET
  1

  9
$XEDIT
290
     1
  9
$CEPSNTYPE
380
     0
  9
$PSTYLEMODE
290
     1
  9
$FINGERPRINTGUID
  2
{7B5FA0A4-6C00-419A-93F3-C56E662CF1F7}
  9
$VERSIONGUID
  2
{FAEB1C32-E019-11D5-929B-00C0DF256EC4}
  9
$EXTNAMES
290
     1
  9
$PSVPSCALE
 40
0.0
  9
$OLESTARTUP
290
     0
  0
ENDSEC
  0
SECTION
  2
CLASSES
  0
CLASS
  1
ACDBDICTIONARYWDFLT
  2
AcDbDictionaryWithDefault
  3
ObjectDBX Classes
 90
        0
280
     0
281
     0
  0
CLASS
  1
ACDBPLACEHOLDER
  2
AcDbPlaceHolder
  3
ObjectDBX Classes
 90
        0
280
     0
281
     0
  0
CLASS
  1
LAYOUT
  2
AcDbLayout
  3
ObjectDBX Classes
 90
        0
280
     0
281
     0
  0
CLASS
  1
SCALE
  2
AcDbScale
  3
ObjectDBX Classes
 90
     1153
280
     0
281
     0
  0
CLASS
  1
VISUALSTYLE
  2
AcDbVisualStyle
  3
ObjectDBX Classes
 90
     4095
280
     0
281
     0
  0
CLASS
  1
MATERIAL
  2
AcDbMaterial
  3
ObjectDBX Classes
 90
     1153
280
     0
281
     0
  0
CLASS
  1
TABLESTYLE
  2
AcDbTableStyle
  3
ObjectDBX Classes
 90
     4095
280
     0
281
     0
  0
CLASS
  1
SUN
  2
AcDbSun
  3
SCENEOE
 90
     1153
280
     0
281
     0
  0
CLASS
  1
RASTERVARIABLES
  2
AcDbRasterVariables
  3
ISM
 90
        0
280
     0
281
     0
  0
CLASS
  1
DIMASSOC
  2
AcDbDimAssoc
  3
"AcDbDimAssoc|Product Desc:     AcDim ARX App For Dimension|Company:          Autodesk, Inc.|WEB Address:      www.autodesk.com"
 90
        0
280
     0
281
     0
  0
CLASS
  1
DICTIONARYVAR
  2
AcDbDictionaryVar
  3
ObjectDBX Classes
 90
        0
280
     0
281
     0
  0
CLASS
  1
MLEADERSTYLE
  2
AcDbMLeaderStyle
  3
ACDB_MLEADERSTYLE_CLASS
 90
     4095
280
     0
281
     0
  0
ENDSEC
  0
SECTION
  2
TABLES
  0
TABLE
  2
VPORT
  5
8
330
0
100
AcDbSymbolTable
 70
     1
  0
VPORT
  5
1F4
330
8
100
AcDbSymbolTableRecord
100
AcDbViewportTableRecord
  2
*ACTIVE
 70
     0
 10
0.0
 20
0.0
 11
1.0
 21
1.0
 12
143.1861177223478
 22
227.3609008421674
 13
0.0
 23
0.0
 14
1.0
 24
1.0
 15
0.0
 25
0.0
 16
0.0
 26
0.0
 36
1.0
 17
0.0
 27
0.0
 37
0.0
 40
426.6334082350413
 41
2.042362002567394
 42
50.0
 43
0.0
 44
0.0
 50
0.0
 51
0.0
 71
    16
 72
   100
 73
     1
 74
     1
 75
     0
 76
     0
 77
     0
 78
     0
281
     0
 65
     1
110
0.0
120
0.0
130
0.0
111
1.0
121
0.0
131
0.0
112
0.0
122
1.0
132
0.0
 79
     0
146
0.0
  0
ENDTAB
  0
TABLE
  2
LTYPE
  5
5
330
0
100
AcDbSymbolTable
 70
     3
  0
LTYPE
  5
14
330
5
100
AcDbSymbolTableRecord
100
AcDbLinetypeTableRecord
  2
BYBLOCK
 70
     0
  3

 72
    65
 73
     0
 40
0.0
  0
LTYPE
  5
15
330
5
100
AcDbSymbolTableRecord
100
AcDbLinetypeTableRecord
  2
BYLAYER
 70
     0
  3

 72
    65
 73
     0
 40
0.0
  0
LTYPE
  5
16
330
5
100
AcDbSymbolTableRecord
100
AcDbLinetypeTableRecord
  2
CONTINUOUS
 70
     0
  3
Solid line
 72
    65
 73
     0
 40
0.0
  0
LTYPE
  5
1F5
330
5
100
AcDbSymbolTableRecord
100
AcDbLinetypeTableRecord
  2
CENTER
 70
     0
  3
____ _ ____ _ ____ _ ____ _ ____ _ ____ _ ____
 72
    65
 73
     4
 40
0.6
 49
0.375
 74
     0
 49
-0.075
 74
     0
 49
0.075
 74
     0
 49
-0.075
 74
     0
  0
LTYPE
  5
1F6
330
5
100
AcDbSymbolTableRecord
100
AcDbLinetypeTableRecord
  2
HIDDEN
 70
     0
  3
- - - - - - - - - - - - - - - - - - - -
 72
    65
 73
     2
 40
0.2
 49
0.1
 74
     0
 49
-0.1
 74
     0
  0
ENDTAB
  0
TABLE
  2
LAYER
  5
2
330
0
100
AcDbSymbolTable
 70
     4
  0
LAYER
  5
10
330
2
100
AcDbSymbolTableRecord
100
AcDbLayerTableRecord
  2
0
 70
     0
 62
     7
  6
CONTINUOUS
370
    -3
390
F
  0
LAYER
  5
204
330
2
100
AcDbSymbolTableRecord
100
AcDbLayerTableRecord
  2
02___PRT_ALL_AXES
 70
     0
 62
     7
  6
CONTINUOUS
370
    -3
390
F
  0
LAYER
  5
21A
330
2
100
AcDbSymbolTableRecord
100
AcDbLayerTableRecord
  2
ALL_ASSEM_MEMBER
 70
     0
 62
     7
  6
CONTINUOUS
370
    -3
390
F
  0
LAYER
  5
221
330
2
100
AcDbSymbolTableRecord
100
AcDbLayerTableRecord
  2
ALL_DETAIL_ITEM
 70
     0
 62
     7
  6
CONTINUOUS
370
    -3
390
F
  0
ENDTAB
  0
TABLE
  2
STYLE
  5
3
330
0
100
AcDbSymbolTable
 70
     1
  0
STYLE
  5
11
330
3
100
AcDbSymbolTableRecord
100
AcDbTextStyleTableRecord
  2
STANDARD
 70
     0
 40
0.0
 41
0.6
 50
0.0
 71
     0
 42
0.2
  3
txt
  4

  0
ENDTAB
  0
TABLE
  2
VIEW
  5
6
330
0
100
AcDbSymbolTable
 70
     0
  0
ENDTAB
  0
TABLE
  2
UCS
  5
7
330
0
100
AcDbSymbolTable
 70
     0
  0
ENDTAB
  0
TABLE
  2
APPID
  5
9
330
0
100
AcDbSymbolTable
 70
     1
  0
APPID
  5
23A
330
9
100
AcDbSymbolTableRecord
100
AcDbRegAppTableRecord
  2
ACAD
 70
     0
  0
ENDTAB
  0
TABLE
  2
DIMSTYLE
  5
A
330
0
100
AcDbSymbolTable
 70
     1
100
AcDbDimStyleTable
  0
DIMSTYLE
105
297
330
A
100
AcDbSymbolTableRecord
100
AcDbDimStyleTableRecord
  2
STANDARD
 70
     0
 41
3.5
 42
0.0
 44
1.0
 47
0.01
 48
0.01
 71
     1
 73
     0
 74
     0
 77
     1
 78
     8
140
2.5
147
0.625
178
     0
271
     2
272
     2
278
    44
284
     8
340
11
341
23D
342
23D
343
23D
344
23D
  0
ENDTAB
  0
TABLE
  2
BLOCK_RECORD
  5
1
330
0
100
AcDbSymbolTable
 70
     1
  0
BLOCK_RECORD
  5
23B
330
1
100
AcDbSymbolTableRecord
100
AcDbBlockTableRecord
  2
*Model_Space
340
70CB
  0
BLOCK_RECORD
  5
23C
330
1
100
AcDbSymbolTableRecord
100
AcDbBlockTableRecord
  2
*Paper_Space
340
70CC
  0
BLOCK_RECORD
  5
23D
330
1
100
AcDbSymbolTableRecord
100
AcDbBlockTableRecord
  2
_FILLED
340
0
  0
ENDTAB
  0
ENDSEC
  0
SECTION
  2
BLOCKS
  0
BLOCK
  5
20
330
23B
100
AcDbEntity
  8
0
100
AcDbBlockBegin
  2
*Model_Space
 70
     0
 10
0.0
 20
0.0
 30
0.0
  3
*Model_Space
  1
*Model_Space
  0
ENDBLK
  5
21
330
23B
100
AcDbEntity
  8
0
100
AcDbBlockEnd
  0
BLOCK
  5
1C
330
23C
100
AcDbEntity
 67
     1
  8
0
100
AcDbBlockBegin
  2
*Paper_Space
 70
     0
 10
0.0
 20
0.0
 30
0.0
  3
*Paper_Space
  1
*Paper_Space
  0
ENDBLK
  5
1D
330
23C
100
AcDbEntity
 67
     1
  8
0
100
AcDbBlockEnd
  0
BLOCK
  5
37E
330
23D
100
AcDbEntity
  8
0
100
AcDbBlockBegin
  2
_FILLED
 70
     0
 10
0.0
 20
0.0
 30
0.0
  3
_FILLED
  1
_FILLED
  0
SOLID
  5
37F
330
23D
100
AcDbEntity
  8
0
  6
ByBlock
 62
     0
100
AcDbTrace
 10
0.0
 20
0.0
 30
0.0
 11
-1.0
 21
0.2142857143
 31
0.0
 12
-1.0
 22
-0.2142857143
 32
0.0
 13
-1.0
 23
-0.2142857143
 33
0.0
  0
ENDBLK
  5
380
330
23D
100
AcDbEntity
  8
0
  6
ByBlock
 62
     0
100
AcDbBlockEnd
  0
ENDSEC
  0
SECTION
  2
ENTITIES
  0
LINE
  5
46F0
330
23B
100
AcDbEntity
  8
0
100
AcDbLine
 10
40.8583485517
 20
348.0763928723
 30
0.0
 11
40.8583485517
 21
257.0763928723
 31
0.0
  0
LINE
  5
4715
330
23B
100
AcDbEntity
  8
0
100
AcDbLine
 10
41.3583485517
 20
256.5763928723
 30
0.0
 11
178.3583485517
 21
256.5763928723
 31
0.0
  0
LINE
  5
4729
330
23B
100
AcDbEntity
  8
0
100
AcDbLine
 10
46.8583485517
 20
256.5763928723
 30
0.0
 11
46.8583485517
 21
348.5763928723
 31
0.0
  0
LINE
  5
47B1
330
23B
100
AcDbEntity
  8
0
100
AcDbLine
 10
52.9725621141
 20
350.5906064347
 30
0.0
 11
50.9583485517
 21
348.5763928723
 31
0.0
  0
LINE
  5
47C8
330
23B
100
AcDbEntity
  8
0
100
AcDbLine
 10
46.8583485517
 20
262.5763928723
 30
0.0
 11
172.8583485517
 21
262.5763928723
 31
0.0
  0
LINE
  5
490E
330
23B
100
AcDbEntity
  8
0
100
AcDbLine
 10
44.4219524486
 20
343.7399967692
 30
0.0
 11
42.4219524486
 21
345.7399967692
 31
0.0
  0
LINE
  5
49AA
330
23B
100
AcDbEntity
  8
0
100
AcDbLine
 10
43.6947446547
 20
347.0127889754
 30
0.0
 11
45.6947446547
 21
345.0127889754
 31
0.0
  0
LINE
  5
4AD3
330
23B
100
AcDbEntity
  8
ALL_ASSEM_MEMBER
  6
Continuous
 62
     7
100
AcDbLine
 10
104.6583485517
 20
389.1763928723
 30
0.0
 11
104.6583485517
 21
352.7179427225
 31
0.0
  0
LINE
  5
4B41
330
23B
100
AcDbEntity
  8
0
100
AcDbLine
 10
42.4219524486
 20
259.4127889754
 30
0.0
 11
44.4219524486
 21
261.4127889754
 31
0.0
  0
LINE
  5
4B44
330
23B
100
AcDbEntity
  8
0
100
AcDbLine
 10
45.6947446547
 20
260.1399967692
 30
0.0
 11
43.6947446547
 21
258.1399967692
 31
0.0
  0
LINE
  5
4BA7
330
23B
100
AcDbEntity
  8
0
100
AcDbLine
 10
174.0219524486
 20
260.1399967692
 30
0.0
 11
176.0219524486
 21
258.1399967692
 31
0.0
  0
LINE
  5
4C2F
330
23B
100
AcDbEntity
  8
0
100
AcDbLine
 10
177.2947446547
 20
259.4127889754
 30
0.0
 11
175.2947446547
 21
261.4127889754
 31
0.0
  0
LINE
  5
4C8C
330
23B
100
AcDbEntity
  8
02___PRT_ALL_AXES
  6
CENTER
 62
     2
100
AcDbLine
 10
120.2583485517
 20
329.9336608281459
 30
0.0
 11
120.2583485517
 21
394.6527078469249
 31
0.0
  0
LINE
  5
4DF7
330
23B
100
AcDbEntity
  8
0
100
AcDbLine
 10
46.8583485517
 20
342.5763928723
 30
0.0
 11
172.8583485517
 21
342.5763928723
 31
0.0
  0
LINE
  5
4E9F
330
23B
100
AcDbEntity
  8
ALL_ASSEM_MEMBER
  6
Continuous
 62
     7
100
AcDbLine
 10
135.8583485517
 20
389.1763928723
 30
0.0
 11
135.8583485517
 21
369.9763928723
 31
0.0
  0
LINE
  5
4EEC
330
23B
100
AcDbEntity
  8
0
100
AcDbLine
 10
41.3583485517
 20
348.5763928723
 30
0.0
 11
178.3583485517
 21
348.5763928723
 31
0.0
  0
LINE
  5
4F5D
330
23B
100
AcDbEntity
  8
0
100
AcDbLine
 10
176.0219524486
 20
347.0127889754
 30
0.0
 11
174.0219524486
 21
345.0127889754
 31
0.0
  0
LINE
  5
4F5E
330
23B
100
AcDbEntity
  8
0
100
AcDbLine
 10
175.2947446547
 20
343.7399967692
 30
0.0
 11
177.2947446547
 21
345.7399967692
 31
0.0
  0
LINE
  5
4F68
330
23B
100
AcDbEntity
  8
0
100
AcDbLine
 10
54.3867756764
 20
351.1763928723
 30
0.0
 11
165.3299214269
 21
351.1763928723
 31
0.0
  0
LINE
  5
4FDA
330
23B
100
AcDbEntity
  8
ALL_ASSEM_MEMBER
  6
Continuous
 62
     7
100
AcDbLine
 10
145.4583485517
 20
369.9763928723
 30
0.0
 11
145.4583485517
 21
351.9763928723
 31
0.0
  0
LINE
  5
500A
330
23B
100
AcDbEntity
  8
ALL_ASSEM_MEMBER
  6
Continuous
 62
     7
100
AcDbLine
 10
145.4583485517
 20
369.9763928723
 30
0.0
 11
132.7071478751
 21
369.9763928723
 31
0.0
  0
LINE
  5
50C5
330
23B
100
AcDbEntity
  8
0
100
AcDbLine
 10
172.8583485517
 20
256.5763928723
 30
0.0
 11
172.8583485517
 21
348.5763928723
 31
0.0
  0
LINE
  5
50F7
330
23B
100
AcDbEntity
  8
0
100
AcDbLine
 10
168.7583485517
 20
348.5763928723
 30
0.0
 11
166.7441349893
 21
350.5906064347
 31
0.0
  0
LINE
  5
5109
330
23B
100
AcDbEntity
  8
0
100
AcDbLine
 10
178.8583485517
 20
257.0763928723
 30
0.0
 11
178.8583485517
 21
348.0763928723
 31
0.0
  0
LINE
  5
5110
330
23B
100
AcDbEntity
  8
ALL_ASSEM_MEMBER
  6
Continuous
 62
     7
100
AcDbLine
 10
134.0583485517
 20
390.9763928723
 30
0.0
 11
106.4583485517
 21
390.9763928723
 31
0.0
  0
LINE
  5
5134
330
23B
100
AcDbEntity
  8
0
100
AcDbLine
 10
40.8583485517
 20
206.1104445607
 30
0.0
 11
40.8583485517
 21
204.7104445607
 31
0.0
  0
LINE
  5
54F6
330
23B
100
AcDbEntity
  8
0
100
AcDbLine
 10
46.85834855169995
 20
97.2104445607
 30
0.0
 11
172.8583485517
 21
97.2104445607
 31
0.0
  0
LINE
  5
566F
330
23B
100
AcDbEntity
  8
0
100
AcDbLine
 10
92.2583485517
 20
97.2104445607
 30
0.0
 11
92.2583485517
 21
174.2104445607
 31
0.0
  0
LINE
  5
5771
330
23B
100
AcDbEntity
  8
ALL_ASSEM_MEMBER
  6
Continuous
 62
     7
100
AcDbLine
 10
145.4583485517
 20
126.7104445607
 30
0.0
 11
132.9828527181
 21
126.7104445607
 31
0.0
  0
LINE
  5
5987
330
23B
100
AcDbEntity
  8
ALL_ASSEM_MEMBER
  6
Continuous
 62
     7
100
AcDbLine
 10
145.4583485517
 20
144.7104445607
 30
0.0
 11
132.9828527181
 21
144.7104445607
 31
0.0
  0
LINE
  5
5BD2
330
23B
100
AcDbEntity
  8
ALL_ASSEM_MEMBER
  6
Continuous
 62
     7
100
AcDbLine
 10
145.4583485517
 20
144.7104445607
 30
0.0
 11
145.4583485517
 21
126.7104445607
 31
0.0
  0
LINE
  5
5BD9
330
23B
100
AcDbEntity
  8
0
100
AcDbLine
 10
148.2583485517
 20
174.2104445607
 30
0.0
 11
148.2583485517
 21
97.21044456070003
 31
0.0
  0
LINE
  5
5C53
330
23B
100
AcDbEntity
  8
0
100
AcDbLine
 10
46.85834855169997
 20
174.2104445607
 30
0.0
 11
172.8583485517
 21
174.2104445607
 31
0.0
  0
LINE
  5
5F58
330
23B
100
AcDbEntity
  8
0
100
AcDbLine
 10
178.8583485517
 20
206.1104445607
 30
0.0
 11
178.8583485517
 21
204.7104445607
 31
0.0
  0
LINE
  5
5FAF
330
23B
100
AcDbEntity
  8
0
100
AcDbLine
 10
178.2583485517
 20
206.7104445607
 30
0.0
 11
41.4583485517
 21
206.7104445607
 31
0.0
  0
LINE
  5
5FDF
330
23B
100
AcDbEntity
  8
ALL_ASSEM_MEMBER
  6
Continuous
 62
     7
100
AcDbLine
 10
219.965563345
 20
347.9763928723
 30
0.0
 11
219.965563345
 21
257.1763928723
 31
0.0
  0
LINE
  5
6020
330
23B
100
AcDbEntity
  8
ALL_ASSEM_MEMBER
  6
Continuous
 62
     7
100
AcDbLine
 10
221.965563345
 20
256.5763928723
 30
0.0
 11
220.565563345
 21
256.5763928723
 31
0.0
  0
LINE
  5
6051
330
23B
100
AcDbEntity
  8
ALL_ASSEM_MEMBER
  6
Continuous
 62
     7
100
AcDbLine
 10
361.965563345
 20
262.5763928723
 30
0.0
 11
219.965563345
 21
262.5763928723
 31
0.0
  0
LINE
  5
60D2
330
23B
100
AcDbEntity
  8
ALL_ASSEM_MEMBER
  6
Continuous
 62
     7
100
AcDbLine
 10
252.465563345
 20
342.5763928723
 30
0.0
 11
252.465563345
 21
351.1763928723
 31
0.0
  0
LINE
  5
622F
330
23B
100
AcDbEntity
  8
ALL_ASSEM_MEMBER
  6
Continuous
 62
     7
100
AcDbLine
 10
275.365563345
 20
352.7179427225
 30
0.0
 11
275.365563345
 21
389.1763928723
 31
0.0
  0
LINE
  5
6244
330
23B
100
AcDbEntity
  8
ALL_ASSEM_MEMBER
  6
Continuous
 62
     7
100
AcDbLine
 10
277.965563345
 20
349.5763928723
 30
0.0
 11
277.965563345
 21
352.7179427225
 31
0.0
  0
LINE
  5
62C7
330
23B
100
AcDbEntity
  8
ALL_ASSEM_MEMBER
  6
HIDDEN
 62
     8
100
AcDbLine
 10
281.965563345
 20
369.9763928723
 30
0.0
 11
281.965563345
 21
351.9763928723
 31
0.0
  0
LINE
  5
640B
330
23B
100
AcDbEntity
  8
ALL_ASSEM_MEMBER
  6
HIDDEN
 62
     8
100
AcDbLine
 10
299.965563345
 20
351.9763928723
 30
0.0
 11
299.965563345
 21
369.9763928723
 31
0.0
  0
LINE
  5
6459
330
23B
100
AcDbEntity
  8
ALL_ASSEM_MEMBER
  6
Continuous
 62
     7
100
AcDbLine
 10
303.965563345
 20
349.5763928723
 30
0.0
 11
303.965563345
 21
352.7179427225
 31
0.0
  0
LINE
  5
64C0
330
23B
100
AcDbEntity
  8
ALL_ASSEM_MEMBER
  6
Continuous
 62
     7
100
AcDbLine
 10
306.565563345
 20
352.7179427225
 30
0.0
 11
306.565563345
 21
389.1763928723
 31
0.0
  0
LINE
  5
6545
330
23B
100
AcDbEntity
  8
ALL_ASSEM_MEMBER
  6
Continuous
 62
     7
100
AcDbLine
 10
219.965563345
 20
342.5763928723
 30
0.0
 11
290.5782650104
 21
342.5763928723
 31
0.0
  0
LINE
  5
6547
330
23B
100
AcDbEntity
  8
ALL_ASSEM_MEMBER
  6
Continuous
 62
     7
100
AcDbLine
 10
291.3528616796
 20
342.5763928723
 30
0.0
 11
361.965563345
 21
342.5763928723
 31
0.0
  0
LINE
  5
66A5
330
23B
100
AcDbEntity
  8
ALL_ASSEM_MEMBER
  6
Continuous
 62
     7
100
AcDbLine
 10
221.965563345
 20
348.5763928723
 30
0.0
 11
220.565563345
 21
348.5763928723
 31
0.0
  0
LINE
  5
66CD
330
23B
100
AcDbEntity
  8
ALL_ASSEM_MEMBER
  6
Continuous
 62
     7
100
AcDbLine
 10
252.465563345
 20
349.5763928723
 30
0.0
 11
329.465563345
 21
349.5763928723
 31
0.0
  0
LINE
  5
674A
330
23B
100
AcDbEntity
  8
ALL_ASSEM_MEMBER
  6
HIDDEN
 62
     8
100
AcDbLine
 10
281.965563345
 20
351.9763928723
 30
0.0
 11
299.965563345
 21
351.9763928723
 31
0.0
  0
LINE
  5
6755
330
23B
100
AcDbEntity
  8
ALL_ASSEM_MEMBER
  6
Continuous
 62
     7
100
AcDbLine
 10
275.365563345
 20
352.7179427225
 30
0.0
 11
306.565563345
 21
352.7179427225
 31
0.0
  0
LINE
  5
67E2
330
23B
100
AcDbEntity
  8
ALL_ASSEM_MEMBER
  6
HIDDEN
 62
     8
100
AcDbLine
 10
281.965563345
 20
369.9763928723
 30
0.0
 11
299.965563345
 21
369.9763928723
 31
0.0
  0
LINE
  5
689A
330
23B
100
AcDbEntity
  8
ALL_ASSEM_MEMBER
  6
Continuous
 62
     7
100
AcDbLine
 10
304.765563345
 20
390.9763928723
 30
0.0
 11
277.165563345
 21
390.9763928723
 31
0.0
  0
ARC
  5
6C22
330
23B
100
AcDbEntity
  8
0
100
AcDbCircle
 10
43.0583485517
 20
258.7763928723
 30
0.0
 40
0.9
100
AcDbArc
 50
135.0
 51
315.0
  0
ARC
  5
6C23
330
23B
100
AcDbEntity
  8
0
100
AcDbCircle
 10
45.0583485517
 20
260.7763928723
 30
0.0
 40
0.9
100
AcDbArc
 50
315.0
 51
135.0
  0
ARC
  5
6C5F
330
23B
100
AcDbEntity
  8
0
100
AcDbCircle
 10
43.0583485517
 20
346.3763928723
 30
0.0
 40
0.9
100
AcDbArc
 50
45.0
 51
225.0
  0
ARC
  5
6C60
330
23B
100
AcDbEntity
  8
0
100
AcDbCircle
 10
45.0583485517
 20
344.3763928723
 30
0.0
 40
0.9
100
AcDbArc
 50
225.0
 51
45.0
  0
ARC
  5
6C74
330
23B
100
AcDbEntity
  8
0
100
AcDbCircle
 10
54.3867756764
 20
349.1763928723
 30
0.0
 40
2.0
100
AcDbArc
 50
90.0
 51
135.0
  0
ARC
  5
6C7A
330
23B
100
AcDbEntity
  8
0
100
AcDbCircle
 10
57.8583485517
 20
346.9763928723
 30
0.0
 40
3.0
100
AcDbArc
 50
32.2328240523
 51
147.7671759477
  0
ARC
  5
6CB3
330
23B
100
AcDbEntity
  8
ALL_ASSEM_MEMBER
  6
Continuous
 62
     7
100
AcDbCircle
 10
106.4583485517
 20
389.1763928723
 30
0.0
 40
1.8
100
AcDbArc
 50
90.0
 51
180.0
  0
ARC
  5
6CBF
330
23B
100
AcDbEntity
  8
0
100
AcDbCircle
 10
174.6583485517
 20
260.7763928723
 30
0.0
 40
0.9
100
AcDbArc
 50
45.0
 51
225.0
  0
ARC
  5
6CC0
330
23B
100
AcDbEntity
  8
0
100
AcDbCircle
 10
176.6583485517
 20
258.7763928723
 30
0.0
 40
0.9
100
AcDbArc
 50
225.0
 51
45.0
  0
ARC
  5
6D23
330
23B
100
AcDbEntity
  8
ALL_ASSEM_MEMBER
  6
Continuous
 62
     7
100
AcDbCircle
 10
134.0583485517
 20
389.1763928723
 30
0.0
 40
1.8
100
AcDbArc
 50
0.0
 51
90.0
  0
ARC
  5
6D3C
330
23B
100
AcDbEntity
  8
0
100
AcDbCircle
 10
161.8583485517
 20
346.9763928723
 30
0.0
 40
3.0
100
AcDbArc
 50
32.2328240523
 51
147.7671759477
  0
ARC
  5
6D4A
330
23B
100
AcDbEntity
  8
0
100
AcDbCircle
 10
165.3299214269
 20
349.1763928723
 30
0.0
 40
2.0
100
AcDbArc
 50
45.0
 51
90.0
  0
ARC
  5
6D61
330
23B
100
AcDbEntity
  8
0
100
AcDbCircle
 10
176.6583485517
 20
346.3763928723
 30
0.0
 40
0.9
100
AcDbArc
 50
315.0
 51
135.0
  0
ARC
  5
6D62
330
23B
100
AcDbEntity
  8
0
100
AcDbCircle
 10
174.6583485517
 20
344.3763928723
 30
0.0
 40
0.9
100
AcDbArc
 50
135.0
 51
315.0
  0
ARC
  5
6DEB
330
23B
100
AcDbEntity
  8
0
100
AcDbCircle
 10
41.4583485517
 20
206.1104445607
 30
0.0
 40
0.6
100
AcDbArc
 50
90.0
 51
180.0
  0
ARC
  5
6ECE
330
23B
100
AcDbEntity
  8
ALL_ASSEM_MEMBER
  6
HIDDEN
 62
     8
100
AcDbCircle
 10
120.2583485517
 20
135.7104445607
 30
0.0
 40
20.0
100
AcDbArc
 50
0.0
 51
26.8026253552
  0
ARC
  5
6ECF
330
23B
100
AcDbEntity
  8
ALL_ASSEM_MEMBER
  6
Continuous
 62
     7
100
AcDbCircle
 10
120.2583485517
 20
135.7104445607
 30
0.0
 40
20.0
100
AcDbArc
 50
26.8026253552
 51
333.1973746448
  0
ARC
  5
6ED0
330
23B
100
AcDbEntity
  8
ALL_ASSEM_MEMBER
  6
HIDDEN
 62
     8
100
AcDbCircle
 10
120.2583485517
 20
135.7104445607
 30
0.0
 40
20.0
100
AcDbArc
 50
333.1973746448
 51
360.0
  0
CIRCLE
  5
6ED1
330
23B
100
AcDbEntity
  8
ALL_ASSEM_MEMBER
  6
Continuous
 62
     7
100
AcDbCircle
 10
120.2583485517
 20
135.7104445607
 30
0.0
 40
15.6
  0
ARC
  5
6F82
330
23B
100
AcDbEntity
  8
0
100
AcDbCircle
 10
178.2583485517
 20
206.1104445607
 30
0.0
 40
0.6
100
AcDbArc
 50
0.0
 51
90.0
  0
ARC
  5
6F90
330
23B
100
AcDbEntity
  8
ALL_ASSEM_MEMBER
  6
Continuous
 62
     7
100
AcDbCircle
 10
220.565563345
 20
257.1763928723
 30
0.0
 40
0.6
100
AcDbArc
 50
180.0
 51
270.0
  0
ARC
  5
6FE7
330
23B
100
AcDbEntity
  8
ALL_ASSEM_MEMBER
  6
Continuous
 62
     7
100
AcDbCircle
 10
220.565563345
 20
347.9763928723
 30
0.0
 40
0.6
100
AcDbArc
 50
90.0
 51
180.0
  0
ARC
  5
7012
330
23B
100
AcDbEntity
  8
ALL_ASSEM_MEMBER
  6
Continuous
 62
     7
100
AcDbCircle
 10
277.165563345
 20
389.1763928723
 30
0.0
 40
1.8
100
AcDbArc
 50
90.0
 51
180.0
  0
CIRCLE
  5
7027
330
23B
100
AcDbEntity
  8
ALL_ASSEM_MEMBER
  6
HIDDEN
 62
     8
100
AcDbCircle
 10
290.965563345
 20
293.5763928723
 30
0.0
 40
26.0
  0
ARC
  5
7084
330
23B
100
AcDbEntity
  8
ALL_ASSEM_MEMBER
  6
Continuous
 62
     7
100
AcDbCircle
 10
304.765563345
 20
389.1763928723
 30
0.0
 40
1.8
100
AcDbArc
 50
0.0
 51
90.0
  0
LINE
  5
7132
330
23B
100
AcDbEntity
  8
0
100
AcDbLine
 10
275.365563345
 20
384.1404289862732
 30
0.0
 11
306.565563345
 21
384.1404289862732
 31
0.0
  0
LINE
  5
7133
330
23B
100
AcDbEntity
  8
02___PRT_ALL_AXES
  6
CENTER
 62
     2
100
AcDbLine
 10
290.965563345
 20
396.1754368485007
 30
0.0
 11
290.965563345
 21
329.5128944062662
 31
0.0
  0
LINE
  5
7151
330
23B
100
AcDbEntity
  8
02___PRT_ALL_AXES
  6
CENTER
 62
     2
100
AcDbLine
 10
94.69593733291158
 20
135.7104445607
 30
0.0
 11
145.8207597704884
 21
135.7104445607
 31
0.0
  0
LINE
  5
7152
330
23B
100
AcDbEntity
  8
02___PRT_ALL_AXES
  6
CENTER
 62
     2
100
AcDbLine
 10
120.2583485517
 20
110.1480333419116
 30
0.0
 11
120.2583485517
 21
161.2728557794884
 31
0.0
  0
LINE
  5
7155
330
23B
100
AcDbEntity
  8
ALL_ASSEM_MEMBER
  6
Continuous
 62
     7
100
AcDbLine
 10
361.965563345
 20
347.9763928723
 30
0.0
 11
361.965563345
 21
257.1763928723
 31
0.0
  0
LINE
  5
7156
330
23B
100
AcDbEntity
  8
ALL_ASSEM_MEMBER
  6
Continuous
 62
     7
100
AcDbLine
 10
359.965563345
 20
256.5763928723
 30
0.0
 11
361.365563345
 21
256.5763928723
 31
0.0
  0
LINE
  5
7157
330
23B
100
AcDbEntity
  8
ALL_ASSEM_MEMBER
  6
Continuous
 62
     7
100
AcDbLine
 10
359.965563345
 20
348.5763928723
 30
0.0
 11
361.365563345
 21
348.5763928723
 31
0.0
  0
ARC
  5
7158
330
23B
100
AcDbEntity
  8
ALL_ASSEM_MEMBER
  6
Continuous
 62
     7
100
AcDbCircle
 10
361.365563345
 20
257.1763928723
 30
0.0
 40
0.6
100
AcDbArc
 50
270.0
 51
0.0
  0
ARC
  5
7159
330
23B
100
AcDbEntity
  8
ALL_ASSEM_MEMBER
  6
Continuous
 62
     7
100
AcDbCircle
 10
361.365563345
 20
347.9763928723
 30
0.0
 40
0.6
100
AcDbArc
 50
0.0
 51
90.0
  0
LINE
  5
715B
330
23B
100
AcDbEntity
  8
ALL_ASSEM_MEMBER
  6
Continuous
 62
     7
100
AcDbLine
 10
329.465563345
 20
342.5763928723
 30
0.0
 11
329.465563345
 21
351.1763928723
 31
0.0
  0
ARC
  5
715C
330
23B
100
AcDbEntity
  8
0
100
AcDbCircle
 10
178.3583485517
 20
348.0763928723
 30
0.0
 40
0.5000000000000002
100
AcDbArc
 50
0.0
 51
90.0
  0
ARC
  5
715D
330
23B
100
AcDbEntity
  8
0
100
AcDbCircle
 10
41.3583485517
 20
348.0763928723
 30
0.0
 40
0.5000000000000002
100
AcDbArc
 50
90.0
 51
180.0
  0
ARC
  5
715E
330
23B
100
AcDbEntity
  8
0
100
AcDbCircle
 10
41.3583485517
 20
257.0763928723
 30
0.0
 40
0.5000000000000002
100
AcDbArc
 50
180.0
 51
270.0
  0
ARC
  5
7160
330
23B
100
AcDbEntity
  8
0
100
AcDbCircle
 10
178.3583485517
 20
257.0763928723
 30
0.0
 40
0.5000000000000002
100
AcDbArc
 50
270.0
 51
0.0
  0
LINE
  5
7169
330
23B
100
AcDbEntity
  8
0
100
AcDbLine
 10
40.8583485517
 20
65.31044456070003
 30
0.0
 11
40.8583485517
 21
66.71044456070001
 31
0.0
  0
LINE
  5
716A
330
23B
100
AcDbEntity
  8
0
100
AcDbLine
 10
178.8583485517
 20
65.31044456070003
 30
0.0
 11
178.8583485517
 21
66.71044456070001
 31
0.0
  0
LINE
  5
716B
330
23B
100
AcDbEntity
  8
0
100
AcDbLine
 10
178.2583485517
 20
64.71044456070001
 30
0.0
 11
41.4583485517
 21
64.71044456070001
 31
0.0
  0
ARC
  5
716C
330
23B
100
AcDbEntity
  8
0
100
AcDbCircle
 10
41.4583485517
 20
65.31044456070003
 30
0.0
 40
0.6
100
AcDbArc
 50
180.0
 51
270.0
  0
ARC
  5
716D
330
23B
100
AcDbEntity
  8
0
100
AcDbCircle
 10
178.2583485517
 20
65.31044456070003
 30
0.0
 40
0.6
100
AcDbArc
 50
270.0
 51
0.0
  0
LINE
  5
716F
330
23B
100
AcDbEntity
  8
0
100
AcDbLine
 10
46.85834855169998
 20
206.7104445607
 30
0.0
 11
46.85834855169995
 21
64.71044456070001
 31
0.0
  0
LINE
  5
7171
330
23B
100
AcDbEntity
  8
0
100
AcDbLine
 10
172.8583485517
 20
206.7104445607
 30
0.0
 11
172.8583485517
 21
64.71044456070001
 31
0.0
  0
LINE
  5
71A3
330
23B
100
AcDbEntity
  8
0
100
AcDbLine
 10
132.7071478751
 20
352.7179427225
 30
0.0
 11
104.6583485516999
 21
352.7179427225
 31
0.0
  0
LINE
  5
71A4
330
23B
100
AcDbEntity
  8
0
100
AcDbLine
 10
132.7071478751
 20
369.9763928723
 30
0.0
 11
132.7071478751
 21
351.9763928723
 31
0.0
  0
LINE
  5
71A5
330
23B
100
AcDbEntity
  8
0
100
AcDbLine
 10
145.4583485517
 20
351.9763928723
 30
0.0
 11
132.7071478751
 21
351.9763928723
 31
0.0
  0
LINE
  5
71A6
330
23B
100
AcDbEntity
  8
0
100
AcDbLine
 10
133.2583485517001
 20
351.1763928723
 30
0.0
 11
133.2583485517001
 21
351.9471677974
 31
0.0
  0
LINE
  5
71A7
330
23B
100
AcDbEntity
  8
0
100
AcDbLine
 10
107.2583485517001
 20
351.1763928723
 30
0.0
 11
107.2583485517001
 21
352.7179427225
 31
0.0
  0
LINE
  5
71A8
330
23B
100
AcDbEntity
  8
0
100
AcDbLine
 10
104.6583485517
 20
384.1404289862732
 30
0.0
 11
135.8583485517
 21
384.1404289862732
 31
0.0
  0
MTEXT
  5
71CF
330
23B
100
AcDbEntity
  8
ALL_DETAIL_ITEM
  6
Continuous
 62
     2
100
AcDbMText
 10
355.9018462064174
 20
178.9685629651751
 30
0.0
 40
15.0
 41
0.0
 71
     3
 72
     1
  1
{BKF 315-355 M 1:5}
 73
     1
 44
1.0
1001
ACAD
1000
ACAD_MTEXT_DEFINED_HEIGHT_BEGIN
1070
    46
1040
15.0
1000
ACAD_MTEXT_DEFINED_HEIGHT_END
  0
LINE
  5
7202
330
23B
100
AcDbEntity
  8
0
 62
     2
100
AcDbLine
 10
113.8691297209291
 20
326.2285531091504
 30
0.0
 11
76.59601624347472
 21
306.9493564828809
 31
0.0
  0
LINE
  5
7203
330
23B
100
AcDbEntity
  8
0
 62
     2
100
AcDbLine
 10
76.59601624347472
 20
306.9493564828809
 30
0.0
 11
90.61984667828709
 21
320.8383753501732
 31
0.0
  0
LINE
  5
7204
330
23B
100
AcDbEntity
  8
0
 62
     2
100
AcDbLine
 10
90.61984667828709
 20
320.8383753501732
 30
0.0
 11
93.3275027377987
 21
315.6035736351175
 31
0.0
  0
LINE
  5
7205
330
23B
100
AcDbEntity
  8
0
 62
     2
100
AcDbLine
 10
76.59601624347472
 20
306.9493564828809
 30
0.0
 11
96.0351587973103
 21
310.3687719200617
 31
0.0
  0
LINE
  5
7206
330
23B
100
AcDbEntity
  8
0
 62
     2
100
AcDbLine
 10
96.0351587973103
 20
310.3687719200617
 30
0.0
 11
93.3275027377987
 21
315.6035736351175
 31
0.0
  0
LINE
  5
7207
330
23B
100
AcDbEntity
  8
0
 62
     2
100
AcDbLine
 10
109.8583485517
 20
79.87777768724078
 30
0.0
 11
109.8583485517
 21
37.91383589362994
 31
0.0
  0
LINE
  5
7208
330
23B
100
AcDbEntity
  8
0
 62
     2
100
AcDbLine
 10
109.8583485517
 20
37.91383589362994
 30
0.0
 11
103.9647460597974
 21
56.75098309876188
 31
0.0
  0
LINE
  5
7209
330
23B
100
AcDbEntity
  8
0
 62
     2
100
AcDbLine
 10
103.9647460597974
 20
56.75098309876188
 30
0.0
 11
109.8583485517
 21
56.75098309876188
 31
0.0
  0
LINE
  5
720A
330
23B
100
AcDbEntity
  8
0
 62
     2
100
AcDbLine
 10
109.8583485517
 20
37.91383589362994
 30
0.0
 11
115.7519510436026
 21
56.75098309876188
 31
0.0
  0
LINE
  5
720B
330
23B
100
AcDbEntity
  8
0
 62
     2
100
AcDbLine
 10
115.7519510436026
 20
56.75098309876188
 30
0.0
 11
109.8583485517
 21
56.75098309876188
 31
0.0
  0
LINE
  5
720C
330
23B
100
AcDbEntity
  8
0
 62
     2
100
AcDbLine
 10
109.8583485517
 20
238.2333747056303
 30
0.0
 11
109.8583485517
 21
196.2694329120195
 31
0.0
  0
LINE
  5
720D
330
23B
100
AcDbEntity
  8
0
 62
     2
100
AcDbLine
 10
109.8583485517
 20
196.2694329120195
 30
0.0
 11
103.9647460597973
 21
215.1065801171515
 31
0.0
  0
LINE
  5
720E
330
23B
100
AcDbEntity
  8
0
 62
     2
100
AcDbLine
 10
103.9647460597973
 20
215.1065801171515
 30
0.0
 11
109.8583485517
 21
215.1065801171515
 31
0.0
  0
LINE
  5
720F
330
23B
100
AcDbEntity
  8
0
 62
     2
100
AcDbLine
 10
109.8583485517
 20
196.2694329120195
 30
0.0
 11
115.7519510436026
 21
215.1065801171515
 31
0.0
  0
LINE
  5
7210
330
23B
100
AcDbEntity
  8
0
 62
     2
100
AcDbLine
 10
115.7519510436026
 20
215.1065801171515
 30
0.0
 11
109.8583485517
 21
215.1065801171515
 31
0.0
  0
LINE
  5
7211
330
23B
100
AcDbEntity
  8
0
 62
     2
100
AcDbLine
 10
347.70240109602
 20
321.3435442604015
 30
0.0
 11
389.6663428896309
 21
321.3435442604015
 31
0.0
  0
LINE
  5
7212
330
23B
100
AcDbEntity
  8
0
 62
     2
100
AcDbLine
 10
389.6663428896309
 20
321.3435442604015
 30
0.0
 11
370.8291956844989
 21
327.2371467523041
 31
0.0
  0
LINE
  5
7213
330
23B
100
AcDbEntity
  8
0
 62
     2
100
AcDbLine
 10
370.8291956844989
 20
327.2371467523041
 30
0.0
 11
370.8291956844989
 21
321.3435442604015
 31
0.0
  0
LINE
  5
7214
330
23B
100
AcDbEntity
  8
0
 62
     2
100
AcDbLine
 10
389.6663428896309
 20
321.3435442604015
 30
0.0
 11
370.8291956844989
 21
315.4499417684988
 31
0.0
  0
LINE
  5
7215
330
23B
100
AcDbEntity
  8
0
 62
     2
100
AcDbLine
 10
370.8291956844989
 20
315.4499417684988
 30
0.0
 11
370.8291956844989
 21
321.3435442604015
 31
0.0
  0
LINE
  5
7216
330
23B
100
AcDbEntity
  8
0
 62
     2
100
AcDbLine
 10
189.3468040776305
 20
283.4594301411695
 30
0.0
 11
231.3107458712413
 21
283.4594301411695
 31
0.0
  0
LINE
  5
7217
330
23B
100
AcDbEntity
  8
0
 62
     2
100
AcDbLine
 10
231.3107458712413
 20
283.4594301411695
 30
0.0
 11
212.4735986661094
 21
289.3530326330721
 31
0.0
  0
LINE
  5
7218
330
23B
100
AcDbEntity
  8
0
 62
     2
100
AcDbLine
 10
212.4735986661094
 20
289.3530326330721
 30
0.0
 11
212.4735986661094
 21
283.4594301411695
 31
0.0
  0
LINE
  5
7219
330
23B
100
AcDbEntity
  8
0
 62
     2
100
AcDbLine
 10
231.3107458712413
 20
283.4594301411695
 30
0.0
 11
212.4735986661094
 21
277.5658276492669
 31
0.0
  0
LINE
  5
721A
330
23B
100
AcDbEntity
  8
0
 62
     2
100
AcDbLine
 10
212.4735986661094
 20
277.5658276492669
 30
0.0
 11
212.4735986661094
 21
283.4594301411695
 31
0.0
  0
VIEWPORT
  5
723B
330
23C
100
AcDbEntity
 67
     1
  8
0
100
AcDbViewport
 10
297.0
 20
210.0
 30
0.0
 40
712.8
 41
504.0
 68
     1
 69
     1
 12
297.0
 22
210.0
 13
0.0
 23
0.0
 14
0.5
 24
0.5
 15
0.0
 25
0.0
 16
0.0
 26
0.0
 36
1.0
 17
0.0
 27
0.0
 37
0.0
 42
50.0
 43
0.0
 44
0.0
 45
504.0
 50
0.0
 51
0.0
 72
   100
 90
   557152
  1

281
     0
 71
     1
 74
     0
110
0.0
120
0.0
130
0.0
111
1.0
121
0.0
131
0.0
112
0.0
122
1.0
132
0.0
 79
     0
146
0.0
  0
VIEWPORT
  5
723C
330
23C
100
AcDbEntity
 67
     1
  8
0
100
AcDbViewport
 10
297.0
 20
210.0
 30
0.0
 40
475.2
 41
336.0
 68
     2
 69
     2
 12
215.2623457206654
 22
217.0446363710653
 13
0.0
 23
0.0
 14
0.5
 24
0.5
 15
0.0
 25
0.0
 16
0.0
 26
0.0
 36
1.0
 17
0.0
 27
0.0
 37
0.0
 42
50.0
 43
0.0
 44
0.0
 45
365.4268329739681
 50
0.0
 51
0.0
 72
   100
 90
   557152
  1

281
     0
 71
     1
 74
     0
110
0.0
120
0.0
130
0.0
111
1.0
121
0.0
131
0.0
112
0.0
122
1.0
132
0.0
 79
     0
146
0.0
  0
ENDSEC
  0
SECTION
  2
OBJECTS
  0
DICTIONARY
  5
C
330
0
100
AcDbDictionary
281
     1
  3
ACAD_DETAILVIEWSTYLE
350
7166
  3
ACAD_GROUP
350
D
  3
ACAD_IMAGE_VARS
350
7110
  3
ACAD_LAYOUT
350
1A
  3
ACAD_MLINESTYLE
350
17
  3
ACAD_PLOTSETTINGS
350
19
  3
ACAD_PLOTSTYLENAME
350
E
  3
ACAD_SCALELIST
350
70CD
  3
ACAD_SECTIONVIEWSTYLE
350
7167
  3
AcDbVariableDictionary
350
7161
  3
APPDATA
350
710E
  3
DWGPROPS
350
7262
  0
DICTIONARY
  5
7166
102
{ACAD_REACTORS
330
C
102
}
330
C
100
AcDbDictionary
281
     1
  0
DICTIONARY
  5
D
102
{ACAD_REACTORS
330
C
102
}
330
C
100
AcDbDictionary
281
     1
  0
RASTERVARIABLES
  5
7110
102
{ACAD_REACTORS
330
C
102
}
330
C
100
AcDbRasterVariables
 90
        0
 70
     1
 71
     1
 72
     1
  0
DICTIONARY
  5
1A
102
{ACAD_REACTORS
330
C
102
}
330
C
100
AcDbDictionary
281
     1
  3
Layout1
350
70CC
  3
Model
350
70CB
  0
DICTIONARY
  5
17
102
{ACAD_REACTORS
330
C
102
}
330
C
100
AcDbDictionary
281
     1
  3
Standard
350
18
  0
DICTIONARY
  5
19
102
{ACAD_REACTORS
330
C
102
}
330
C
100
AcDbDictionary
281
     1
  0
ACDBDICTIONARYWDFLT
  5
E
102
{ACAD_REACTORS
330
C
102
}
330
C
100
AcDbDictionary
281
     1
  3
Normal
350
F
100
AcDbDictionaryWithDefault
340
F
  0
DICTIONARY
  5
70CD
102
{ACAD_REACTORS
330
C
102
}
330
C
100
AcDbDictionary
281
     1
  3
A0
350
70CE
  3
A1
350
70CF
  3
A2
350
70D0
  3
A3
350
70D1
  3
A4
350
70D2
  3
A5
350
70D3
  3
A6
350
70D4
  3
A7
350
70D5
  3
A8
350
70D6
  3
A9
350
70D7
  3
B0
350
70D8
  3
B1
350
70D9
  3
B2
350
70DA
  3
B3
350
70DB
  3
B4
350
70DC
  3
B5
350
70DD
  3
B6
350
70DE
  3
B7
350
70DF
  3
B8
350
70E0
  3
B9
350
70E1
  3
C0
350
70E2
  3
C1
350
70E3
  3
C2
350
70E4
  3
C3
350
70E5
  3
C4
350
70E6
  3
C5
350
70E7
  3
C6
350
70E8
  3
C7
350
70E9
  3
C8
350
70EA
  3
C9
350
70EB
  3
D0
350
70EC
  3
D1
350
70ED
  3
D2
350
70EE
  0
DICTIONARY
  5
7167
102
{ACAD_REACTORS
330
C
102
}
330
C
100
AcDbDictionary
281
     1
  0
DICTIONARY
  5
7161
102
{ACAD_REACTORS
330
C
102
}
330
C
100
AcDbDictionary
281
     1
  0
DICTIONARY
  5
710E
102
{ACAD_REACTORS
330
C
102
}
330
C
100
AcDbDictionary
281
     1
  0
XRECORD
  5
7262
102
{ACAD_REACTORS
330
C
102
}
330
C
100
AcDbXrecord
280
     1
  1
DWGPROPS COOKIE
  2

  3

  4

  6

  7

  8
d610igzo
  9

300
=
301
=
302
=
303
=
304
=
305
=
306
=
307
=
308
=
309
=
 40
0.0
 41
0.0
 42
2457837.479064398
  1

 90
        0
  0
LAYOUT
  5
70CC
102
{ACAD_REACTORS
330
1A
102
}
330
1A
100
AcDbPlotSettings
  1

  2
none_device
  4
ISO_A2_(594.00_x_420.00_MM)
  6

 40
0.0
 41
0.0
 42
0.0
 43
0.0
 44
594.0
 45
420.0
 46
0.0
 47
0.0
 48
0.0
 49
0.0
140
0.0
141
0.0
142
1.0
143
1.0
 70
     0
 72
     1
 73
     0
 74
     0
  7

 75
     0
147
1.0
148
0.0
149
0.0
100
AcDbLayout
  1
Layout1
 70
     0
 71
     1
 10
0.0
 20
0.0
 11
594.0
 21
420.0
 12
0.0
 22
0.0
 32
0.0
 14
0.0
 24
0.0
 34
0.0
 15
0.0
 25
0.0
 35
0.0
146
0.0
 13
0.0
 23
0.0
 33
0.0
 16
1.0
 26
0.0
 36
0.0
 17
0.0
 27
1.0
 37
0.0
 76
     0
330
23C
331
723B
  0
LAYOUT
  5
70CB
102
{ACAD_REACTORS
330
1A
102
}
330
1A
100
AcDbPlotSettings
  1

  2
none_device
  4
ISO_A2_(594.00_x_420.00_MM)
  6

 40
0.0
 41
0.0
 42
0.0
 43
0.0
 44
594.0
 45
420.0
 46
0.0
 47
0.0
 48
0.0
 49
0.0
140
0.0
141
0.0
142
1.0
143
1.0
 70
  1024
 72
     1
 73
     0
 74
     0
  7

 75
     0
147
1.0
148
0.0
149
0.0
100
AcDbLayout
  1
Model
 70
     0
 71
     0
 10
9.539458611267605
 20
23.45571688990907
 11
404.4084942386463
 21
413.2249679243142
 12
0.0
 22
0.0
 32
0.0
 14
40.8583485517
 24
37.91383589362994
 34
0.0
 15
389.6663428896309
 25
396.1754368485007
 35
0.0
146
0.0
 13
0.0
 23
0.0
 33
0.0
 16
1.0
 26
0.0
 36
0.0
 17
0.0
 27
1.0
 37
0.0
 76
     0
330
23B
331
1F4
  0
MLINESTYLE
  5
18
102
{ACAD_REACTORS
330
17
102
}
330
17
100
AcDbMlineStyle
  2
STANDARD
 70
     0
  3

 62
   256
 51
90.0
 52
90.0
 71
     2
 49
0.5
 62
   256
  6
BYLAYER
 49
-0.5
 62
   256
  6
BYLAYER
  0
ACDBPLACEHOLDER
  5
F
102
{ACAD_REACTORS
330
E
102
}
330
E
  0
SCALE
  5
70CE
102
{ACAD_REACTORS
330
70CD
102
}
330
70CD
100
AcDbScale
 70
     0
300
1:1
140
1.0
141
1.0
290
     1
  0
SCALE
  5
70CF
102
{ACAD_REACTORS
330
70CD
102
}
330
70CD
100
AcDbScale
 70
     0
300
1:2
140
1.0
141
2.0
290
     0
  0
SCALE
  5
70D0
102
{ACAD_REACTORS
330
70CD
102
}
330
70CD
100
AcDbScale
 70
     0
300
1:4
140
1.0
141
4.0
290
     0
  0
SCALE
  5
70D1
102
{ACAD_REACTORS
330
70CD
102
}
330
70CD
100
AcDbScale
 70
     0
300
1:5
140
1.0
141
5.0
290
     0
  0
SCALE
  5
70D2
102
{ACAD_REACTORS
330
70CD
102
}
330
70CD
100
AcDbScale
 70
     0
300
1:8
140
1.0
141
8.0
290
     0
  0
SCALE
  5
70D3
102
{ACAD_REACTORS
330
70CD
102
}
330
70CD
100
AcDbScale
 70
     0
300
1:10
140
1.0
141
10.0
290
     0
  0
SCALE
  5
70D4
102
{ACAD_REACTORS
330
70CD
102
}
330
70CD
100
AcDbScale
 70
     0
300
1:16
140
1.0
141
16.0
290
     0
  0
SCALE
  5
70D5
102
{ACAD_REACTORS
330
70CD
102
}
330
70CD
100
AcDbScale
 70
     0
300
1:20
140
1.0
141
20.0
290
     0
  0
SCALE
  5
70D6
102
{ACAD_REACTORS
330
70CD
102
}
330
70CD
100
AcDbScale
 70
     0
300
1:30
140
1.0
141
30.0
290
     0
  0
SCALE
  5
70D7
102
{ACAD_REACTORS
330
70CD
102
}
330
70CD
100
AcDbScale
 70
     0
300
1:40
140
1.0
141
40.0
290
     0
  0
SCALE
  5
70D8
102
{ACAD_REACTORS
330
70CD
102
}
330
70CD
100
AcDbScale
 70
     0
300
1:50
140
1.0
141
50.0
290
     0
  0
SCALE
  5
70D9
102
{ACAD_REACTORS
330
70CD
102
}
330
70CD
100
AcDbScale
 70
     0
300
1:100
140
1.0
141
100.0
290
     0
  0
SCALE
  5
70DA
102
{ACAD_REACTORS
330
70CD
102
}
330
70CD
100
AcDbScale
 70
     0
300
2:1
140
2.0
141
1.0
290
     0
  0
SCALE
  5
70DB
102
{ACAD_REACTORS
330
70CD
102
}
330
70CD
100
AcDbScale
 70
     0
300
4:1
140
4.0
141
1.0
290
     0
  0
SCALE
  5
70DC
102
{ACAD_REACTORS
330
70CD
102
}
330
70CD
100
AcDbScale
 70
     0
300
8:1
140
8.0
141
1.0
290
     0
  0
SCALE
  5
70DD
102
{ACAD_REACTORS
330
70CD
102
}
330
70CD
100
AcDbScale
 70
     0
300
10:1
140
10.0
141
1.0
290
     0
  0
SCALE
  5
70DE
102
{ACAD_REACTORS
330
70CD
102
}
330
70CD
100
AcDbScale
 70
     0
300
100:1
140
100.0
141
1.0
290
     0
  0
SCALE
  5
70DF
102
{ACAD_REACTORS
330
70CD
102
}
330
70CD
100
AcDbScale
 70
     0
300
1/128" = 1'-0"
140
0.0078125
141
12.0
290
     0
  0
SCALE
  5
70E0
102
{ACAD_REACTORS
330
70CD
102
}
330
70CD
100
AcDbScale
 70
     0
300
1/64" = 1'-0"
140
0.015625
141
12.0
290
     0
  0
SCALE
  5
70E1
102
{ACAD_REACTORS
330
70CD
102
}
330
70CD
100
AcDbScale
 70
     0
300
1/32" = 1'-0"
140
0.03125
141
12.0
290
     0
  0
SCALE
  5
70E2
102
{ACAD_REACTORS
330
70CD
102
}
330
70CD
100
AcDbScale
 70
     0
300
1/16" = 1'-0"
140
0.0625
141
12.0
290
     0
  0
SCALE
  5
70E3
102
{ACAD_REACTORS
330
70CD
102
}
330
70CD
100
AcDbScale
 70
     0
300
3/32" = 1'-0"
140
0.09375
141
12.0
290
     0
  0
SCALE
  5
70E4
102
{ACAD_REACTORS
330
70CD
102
}
330
70CD
100
AcDbScale
 70
     0
300
1/8" = 1'-0"
140
0.125
141
12.0
290
     0
  0
SCALE
  5
70E5
102
{ACAD_REACTORS
330
70CD
102
}
330
70CD
100
AcDbScale
 70
     0
300
3/16" = 1'-0"
140
0.1875
141
12.0
290
     0
  0
SCALE
  5
70E6
102
{ACAD_REACTORS
330
70CD
102
}
330
70CD
100
AcDbScale
 70
     0
300
1/4" = 1'-0"
140
0.25
141
12.0
290
     0
  0
SCALE
  5
70E7
102
{ACAD_REACTORS
330
70CD
102
}
330
70CD
100
AcDbScale
 70
     0
300
3/8" = 1'-0"
140
0.375
141
12.0
290
     0
  0
SCALE
  5
70E8
102
{ACAD_REACTORS
330
70CD
102
}
330
70CD
100
AcDbScale
 70
     0
300
1/2" = 1'-0"
140
0.5
141
12.0
290
     0
  0
SCALE
  5
70E9
102
{ACAD_REACTORS
330
70CD
102
}
330
70CD
100
AcDbScale
 70
     0
300
3/4" = 1'-0"
140
0.75
141
12.0
290
     0
  0
SCALE
  5
70EA
102
{ACAD_REACTORS
330
70CD
102
}
330
70CD
100
AcDbScale
 70
     0
300
1" = 1'-0"
140
1.0
141
12.0
290
     0
  0
SCALE
  5
70EB
102
{ACAD_REACTORS
330
70CD
102
}
330
70CD
100
AcDbScale
 70
     0
300
1-1/2" = 1'-0"
140
1.5
141
12.0
290
     0
  0
SCALE
  5
70EC
102
{ACAD_REACTORS
330
70CD
102
}
330
70CD
100
AcDbScale
 70
     0
300
3" = 1'-0"
140
3.0
141
12.0
290
     0
  0
SCALE
  5
70ED
102
{ACAD_REACTORS
330
70CD
102
}
330
70CD
100
AcDbScale
 70
     0
300
6" = 1'-0"
140
6.0
141
12.0
290
     0
  0
SCALE
  5
70EE
102
{ACAD_REACTORS
330
70CD
102
}
330
70CD
100
AcDbScale
 70
     0
300
1'-0" = 1'-0"
140
12.0
141
12.0
290
     0
  0
ENDSEC
  0
EOF
